  0
SECTION
  2
HEADER
  9
$ACADVER
  1
AC1009
  9
$INSBASE
 10
0
 20
0
 30
0
  9
$EXTMIN
 10
0
 20
0
  9
$EXTMAX
 10
420
 20
297
  9
$LIMMIN
 10
0
 20
0
  9
$LIMMAX
 10
420
 20
297
  9
$LTSCALE
 40
1
  0
ENDSEC
  0
SECTION
  2
TABLES
  0
TABLE
  2
LTYPE
 70
     9
  0
LTYPE
  2
CONTINUOUS
 70
    64
  3
実線
 72
    65
 73
     0
 40
0.0
  0
LTYPE
  2
DASHED1
 70
    64
  3
--  --  --  --  --  --  --  --  
 72
    65
 73
     2
 40
2.5
 49
1.25
 49
-1.25
  0
LTYPE
  2
DASHED2
 70
    64
  3
----    ----    ----    ----    
 72
    65
 73
     2
 40
5.0
 49
2.5
 49
-2.5
  0
LTYPE
  2
DASHED3
 70
    64
  3
------  ------  ------  ------  
 72
    65
 73
     2
 40
5.0
 49
3.75
 49
-1.25
  0
LTYPE
  2
CENTER1
 70
    64
  3
----- - ----- - ----- - ----- - 
 72
    65
 73
     4
 40
10.0
 49
6.25
 49
-1.25
 49
1.25
 49
-1.25
  0
LTYPE
  2
CENTER2
 70
    64
  3
----------  --  ----------  --  
 72
    65
 73
     4
 40
20.0
 49
12.5
 49
-2.5
 49
2.5
 49
-2.5
  0
LTYPE
  2
PHANTOM1
 70
    64
  3
--- - - --- - - --- - - --- - - 
 72
    65
 73
     6
 40
10.0
 49
3.25
 49
-1.25
 49
1.25
 49
-1.25
 49
1.25
 49
-1.25
  0
LTYPE
  2
PHANTOM2
 70
    64
  3
--------  -  -  --------  -  -  
 72
    65
 73
     6
 40
20.0
 49
10.0
 49
-2.5
 49
1.25
 49
-2.5
 49
1.25
 49
-2.5
  0
LTYPE
  2
DOT
 70
    64
  3
-   -   -   -   -   -   -   -   
 72
    65
 73
     2
 40
2.5
 49
0.625
 49
-1.875
  0
LTYPE
  2
DUMMY
 70
    64
  3
ダミー
 72
    65
 73
     0
 40
0.0
  0
LTYPE
  2
RAND1
 70
    64
  3
ランダム線1
 72
    65
 73
     4
 40
10.0
 49
1.0
 49
-2.0
 49
3.0
 49
-4.0
  0
LTYPE
  2
RAND2
 70
    64
  3
ランダム線2
 72
    65
 73
     4
 40
14.0
 49
2.0
 49
-3.0
 49
4.0
 49
-5.0
  0
LTYPE
  2
RAND3
 70
    64
  3
ランダム線3
 72
    65
 73
     4
 40
18.0
 49
3.0
 49
-4.0
 49
5.0
 49
-6.0
  0
LTYPE
  2
RAND4
 70
    64
  3
ランダム線4
 72
    65
 73
     4
 40
22.0
 49
4.0
 49
-5.0
 49
6.0
 49
-7.0
  0
LTYPE
  2
RAND5
 70
    64
  3
ランダム線5
 72
    65
 73
     4
 40
26.0
 49
5.0
 49
-6.0
 49
7.0
 49
-8.0
  0
LTYPE
  2
LONG1
 70
    64
  3
----------  --  ----------  --  
 72
    65
 73
     4
 40
40.0
 49
32.5
 49
-2.5
 49
2.5
 49
-2.5
  0
LTYPE
  2
LONG2
 70
    64
  3
--------  -  -  --------  -  -  
 72
    65
 73
     6
 40
40.0
 49
30.0
 49
-2.5
 49
1.25
 49
-2.5
 49
1.25
 49
-2.5
  0
LTYPE
  2
LONG3
 70
    64
  3
+++++++++++++++..+++++++++++++++
 72
    65
 73
     2
 40
40.0
 49
37.5
 49
-2.5
  0
LTYPE
  2
LONG4
 70
    64
  3
+++++++++++++++..+++++++++++++++
 72
    65
 73
     2
 40
80.0
 49
75.0
 49
-5.0
  0
LTYPE
  2
LONG5
 70
    64
  3
----------  --  ----------  --  
 72
    65
 73
     4
 40
60.0
 49
37.5
 49
-7.5
 49
7.5
 49
-7.5
  0
LTYPE
  2
dashed
 70
   64
  3
-------   -------------   ------
 72
   65
 73
    2
 40
7.5
 49
6
 49
-1.5
  0
LTYPE
  2
dashed_spaced
 70
   64
  3
----        --------        ----
 72
   65
 73
    2
 40
12
 49
6
 49
-6
  0
LTYPE
  2
long_dashed_dotted
 70
   64
  3
------------- --- --------------
 72
   65
 73
    4
 40
15.25
 49
12
 49
-1.5
 49
0.25
 49
-1.5
  0
LTYPE
  2
long_dashed_double-dotted
 70
   64
  3
----------- --- --- ------------
 72
   65
 73
    6
 40
17
 49
12
 49
-1.5
 49
0.25
 49
-1.5
 49
0.25
 49
-1.5
  0
LTYPE
  2
long_dashed_triplicate-dotted
 70
   64
  3
--------- --- --- --- ----------
 72
   65
 73
    8
 40
18.75
 49
12
 49
-1.5
 49
0.25
 49
-1.5
 49
0.25
 49
-1.5
 49
0.25
 49
-1.5
  0
LTYPE
  2
dotted
 70
   64
  3
   -       -       -       -    
 72
   65
 73
    2
 40
1.75
 49
0.25
 49
-1.5
  0
LTYPE
  2
chain
 70
   64
  3
-------------- -- --------------
 72
   65
 73
    4
 40
18.5
 49
12
 49
-1.5
 49
3.5
 49
-1.5
  0
LTYPE
  2
chain_double_dash
 70
   64
  3
------------ -- -- -------------
 72
   65
 73
    6
 40
23.5
 49
12
 49
-1.5
 49
3.5
 49
-1.5
 49
3.5
 49
-1.5
  0
LTYPE
  2
dashed_dotted
 70
   64
  3
-----------     -     ----------
 72
   65
 73
    4
 40
9.25
 49
6
 49
-1.5
 49
0.25
 49
-1.5
  0
LTYPE
  2
double-dashed_dotted
 70
   64
  3
------   -----------   -   -----
 72
   65
 73
    6
 40
16.75
 49
6
 49
-1.5
 49
6
 49
-1.5
 49
0.25
 49
-1.5
  0
LTYPE
  2
dashed_double-dotted
 70
   64
  3
---------    -    -    ---------
 72
   65
 73
    6
 40
11
 49
6
 49
-1.5
 49
0.25
 49
-1.5
 49
0.25
 49
-1.5
  0
LTYPE
  2
double-dashed_double-dotted
 70
   64
  3
-----   ---------   -   -   ----
 72
   65
 73
    8
 40
18.5
 49
6
 49
-1.5
 49
6
 49
-1.5
 49
0.25
 49
-1.5
 49
0.25
 49
-1.5
  0
LTYPE
  2
dashed_triplicate-dotted
 70
   64
  3
-------    -    -    -    ------
 72
   65
 73
    8
 40
12.75
 49
6
 49
-1.5
 49
0.25
 49
-1.5
 49
0.25
 49
-1.5
 49
0.25
 49
-1.5
  0
LTYPE
  2
double-dashed_triplicate-dotted
 70
   64
  3
-----  ---------  -  -  -  -----
 72
   65
 73
   10
 40
20.25
 49
6
 49
-1.5
 49
6
 49
-1.5
 49
0.25
 49
-1.5
 49
0.25
 49
-1.5
 49
0.25
 49
-1.5
  0
LTYPE
  2
undefined
 70
   64
  3
--------------------------------
 72
   65
 73
    0
 40
0
  0
ENDTAB
  0
TABLE
  2
STYLE
  5
3
100
AcDbSymbolTable
 70
     1
  0
STYLE
  5
10
100
AcDbSymbolTableRecord
100
AcDbTextStyleTableRecord
  2
STANDARD
 70
     0
 40
0.0
 41
1.0
 50
0.0
 71
     0
 42
0.2
  3
txt
  4
bigfont.shx
  0
STYLE
  5
26
100
AcDbSymbolTableRecord
100
AcDbTextStyleTableRecord
  2
TATEGAKI
 70
    68
 40
0.0
 41
1.0
 50
0.0
 71
     0
 42
1.0
  3
txt
  4
bigfont.shx
  0
ENDTAB
  0
TABLE
  2
LAYER
 70
    5
  0
LAYER
  2
_0-1_図__枠__線
 70
   64
 62
    7
  6
CONTINUOUS
  0
LAYER
  2
_0-2_境界線プロット
 70
   64
 62
    7
  6
CONTINUOUS
  0
LAYER
  2
_0-4_求積部の結線
 70
   64
 62
    7
  6
CONTINUOUS
  0
LAYER
  2
_a-0_
 70
   64
 62
    7
  6
CONTINUOUS
  0
LAYER
  2
ADD_LINE
 70
   64
 62
    7
  6
CONTINUOUS
  0
ENDTAB
  0
ENDSEC
  0
SECTION
  2
BLOCKS
  0
ENDSEC
  0
SECTION
  2
ENTITIES
  0
TEXT
  8
_0-4_求積部の結線
 62
    7
 10
1869.8721536880184
 20
-2555.8551859559957
 40
1.5000000000152283
 41
1.9999999999821043
 50
-49.525775439424073
  1
2.88
  0
LINE
  8
_0-4_求積部の結線
  6
CONTINUOUS
 62
    1
 10
274.02297471600468
 20
171.37033395195613
 11
293.99732750401017
 21
172.00934975995915
  0
LINE
  8
_0-4_求積部の結線
  6
CONTINUOUS
 62
    1
 10
294.40068642399274
 20
172.42211670795223
 11
294.56452225201065
 21
190.79918945598183
  0
LINE
  8
_0-4_求積部の結線
  6
CONTINUOUS
 62
    1
 10
294.1680916880141
 20
191.19917662395164
 11
181.56359753999277
 21
191.19916705193464
  0
POINT
  8
_0-2_境界線プロット
 62
    2
 10
294.39712320000399
 20
172.02213257597759
  0
CIRCLE
  8
_0-2_境界線プロット
  6
CONTINUOUS
 62
    2
 10
294.39712320000399
 20
172.02213257597759
 40
0.4
  0
POINT
  8
_0-2_境界線プロット
 62
    2
 10
294.56809168800828
 20
191.19917352800258
  0
CIRCLE
  8
_0-2_境界線プロット
  6
CONTINUOUS
 62
    2
 10
294.56809168800828
 20
191.19917352800258
 40
0.4
  0
LINE
  8
_0-1_図__枠__線
  6
CONTINUOUS
 62
    2
 10
114.39429142355019
 20
130.19943007381448
 11
106.99549649408281
 21
130.19943007381448
  0
LINE
  8
_0-4_求積部の結線
  6
CONTINUOUS
 62
    1
 10
131.77434055177594
 20
62.335809434125864
 11
131.7727521117705
 21
45.083982654150773
  0
LINE
  8
_0-1_図__枠__線
  6
CONTINUOUS
 62
    1
 10
132.17403055176703
 20
62.754176306132891
 11
134.47306156780553
 21
62.859852894153178
  0
LINE
  8
_0-1_図__枠__線
  6
CONTINUOUS
 62
    2
 10
110.78836527978282
 20
82.569204502158996
 11
150.78836527978285
 21
82.569204502158996
  0
LINE
  8
_0-1_図__枠__線
  6
CONTINUOUS
 62
    2
 10
150.78836527978285
 20
82.569204502158996
 11
150.78836527978285
 21
42.569204502158996
  0
LINE
  8
_0-1_図__枠__線
  6
CONTINUOUS
 62
    2
 10
150.78836527978285
 20
42.569204502158996
 11
110.78836527978282
 21
42.569204502158996
  0
LINE
  8
_0-1_図__枠__線
  6
CONTINUOUS
 62
    2
 10
110.78836527978282
 20
42.569204502158996
 11
110.78836527978282
 21
82.569204502158996
  0
LINE
  8
_0-4_求積部の結線
  6
CONTINUOUS
 62
    1
 10
134.90519611976208
 20
80.453477414152317
 11
134.87348979978572
 21
63.278218878144131
  0
POINT
  8
_0-2_境界線プロット
 62
    2
 10
134.87263966778858
 20
62.878219782144029
  0
CIRCLE
  8
_0-2_境界線プロット
  6
CONTINUOUS
 62
    2
 10
134.87263966778858
 20
62.878219782144029
 40
0.4
  0
POINT
  8
_0-2_境界線プロット
 62
    2
 10
131.77445245178399
 20
62.735809418200247
  0
CIRCLE
  8
_0-2_境界線プロット
  6
CONTINUOUS
 62
    2
 10
131.77445245178399
 20
62.735809418200247
 40
0.4
  0
LINE
  8
_0-1_図__枠__線
  6
CONTINUOUS
 62
    2
 10
133.37968431977072
 20
62.952308726149809
 11
129.5245317757873
 21
67.419390246099525
  0
LINE
  8
_0-1_図__枠__線
  6
CONTINUOUS
 62
    2
 10
129.5245317757873
 20
67.419390246099525
 11
119.67247527580923
 21
67.419390246099525
  0
POINT
  8
_0-1_図__枠__線
 62
    2
 10
133.37968431977072
 20
62.952308726149809
  0
TEXT
  8
_0-4_求積部の結線
 62
    7
 10
111.43840840379571
 20
83.164406982136157
 40
4.5
 41
1.142857142857143
 50
0
  1
拡大図1
  0
TEXT
  8
_0-2_境界線プロット
 62
    7
 10
125.42861903145985
 20
61.24740920391271
 40
4
 41
0.925
 50
0
  1
KB3
  0
TEXT
  8
_0-2_境界線プロット
 62
    7
 10
136.2660495553196
 20
61.094769337379475
 40
4
 41
0.925
 50
0
  1
KB2
  0
TEXT
  8
_0-4_求積部の結線
 62
    7
 10
120.08622370279659
 20
67.810923464841849
 40
4
 41
0.925
 50
0
  1
0.03
  0
TEXT
  8
_0-4_求積部の結線
 62
    7
 10
130.7710143601231
 20
79.564193187900997
 40
4
 41
0.925
 50
-90.105770519999908
  1
10.65
  0
TEXT
  8
_0-4_求積部の結線
 62
    7
 10
140.38732595171695
 20
52.546936811518265
 40
5
 41
1.2
 50
0
  1
661
  0
TEXT
  8
_0-4_求積部の結線
 62
    7
 10
111.99631077653507
 20
76.053476257636575
 40
4
 41
1.25
 50
0
  1
661-8
  0
TEXT
  8
_0-4_求積部の結線
 62
    7
 10
127.87085689599161
 20
54.683894942983571
 40
4
 41
0.925
 50
-90.0052754499998
  1
10.92
  0
TEXT
  8
_0-1_図__枠__線
 62
    7
 10
163.70268915613602
 20
62.55334989617252
 40
4
 41
2
 50
0
  1
 
  0
TEXT
  8
_0-1_図__枠__線
 62
    7
 10
163.70268915613602
 20
62.55335918815247
 40
4
 41
2
 50
0
  1
 
  0
TEXT
  8
_0-1_図__枠__線
 62
    7
 10
173.70268915613602
 20
55.55335918815247
 40
5
 41
2
 50
0
  1
 
  0
TEXT
  8
_0-1_図__枠__線
 62
    7
 10
163.70269436813729
 20
62.553403596115757
 40
4
 41
2
 50
0
  1
 
  0
LINE
  8
_0-1_図__枠__線
  6
CONTINUOUS
 62
    2
 10
155.69990270792519
 20
82.498819562328507
 11
195.69990270792519
 21
82.498819562328507
  0
LINE
  8
_0-1_図__枠__線
  6
CONTINUOUS
 62
    2
 10
195.69990270792519
 20
82.498819562328507
 11
195.69990270792519
 21
42.498819562328507
  0
LINE
  8
_0-1_図__枠__線
  6
CONTINUOUS
 62
    2
 10
195.69990270792519
 20
42.498819562328507
 11
155.69990270792519
 21
42.498819562328507
  0
LINE
  8
_0-1_図__枠__線
  6
CONTINUOUS
 62
    2
 10
155.69990270792519
 20
42.498819562328507
 11
155.69990270792519
 21
82.498819562328507
  0
TEXT
  8
_0-4_求積部の結線
 62
    7
 10
155.63918388391508
 20
83.02909923835098
 40
4.5
 41
1.142857142857143
 50
0
  1
拡大図2
  0
TEXT
  8
_0-4_求積部の結線
 62
    7
 10
186.92286789513997
 20
59.955905331816339
 40
5
 41
1.2
 50
0
  1
661
  0
TEXT
  8
_0-4_求積部の結線
 62
    7
 10
178.36923463591273
 20
73.084449286352836
 40
4
 41
0.925
 50
0
  1
0.14
  0
LINE
  8
_0-4_求積部の結線
  6
CONTINUOUS
 62
    1
 10
174.79196159990869
 20
55.125292362309054
 11
174.7512127918996
 21
43.803786006303497
  0
LINE
  8
_0-1_図__枠__線
  6
CONTINUOUS
 62
    1
 10
177.78811525991085
 20
69.107286942320869
 11
177.21144331989825
 21
55.897089214310043
  0
LINE
  8
_0-1_図__枠__線
  6
CONTINUOUS
 62
    1
 10
175.19340133592385
 20
55.520654438309364
 11
176.79402537592586
 21
55.502105030302417
  0
LINE
  8
_0-1_図__枠__線
  6
CONTINUOUS
 62
    1
 10
175.40328796791044
 20
69.611957078346975
 11
177.4059419758957
 21
69.524381554291111
  0
LINE
  8
_0-4_求積部の結線
  6
CONTINUOUS
 62
    1
 10
175.00465952792337
 20
80.766799658317112
 11
175.00367089990658
 21
70.029432274356012
  0
POINT
  8
_0-2_境界線プロット
 62
    2
 10
175.00366987591741
 20
69.629432274332729
  0
CIRCLE
  8
_0-2_境界線プロット
  6
CONTINUOUS
 62
    2
 10
175.00366987591741
 20
69.629432274332729
 40
0.4
  0
POINT
  8
_0-2_境界線プロット
 62
    2
 10
177.80556006390151
 20
69.506906358305358
  0
CIRCLE
  8
_0-2_境界線プロット
  6
CONTINUOUS
 62
    2
 10
177.80556006390151
 20
69.506906358305358
 40
0.4
  0
POINT
  8
_0-2_境界線プロット
 62
    2
 10
177.19399851992392
 20
55.497469798325554
  0
CIRCLE
  8
_0-2_境界線プロット
  6
CONTINUOUS
 62
    2
 10
177.19399851992392
 20
55.497469798325554
 40
0.4
  0
POINT
  8
_0-2_境界線プロット
 62
    2
 10
174.79342819192578
 20
55.525289674360764
  0
CIRCLE
  8
_0-2_境界線プロット
  6
CONTINUOUS
 62
    2
 10
174.79342819192578
 20
55.525289674360764
 40
0.4
  0
POINT
  8
_0-1_図__枠__線
 62
    2
 10
176.08273477990195
 20
55.360701682291918
  0
LINE
  8
_0-1_図__枠__線
  6
CONTINUOUS
 62
    2
 10
176.19151163192481
 20
69.577488270310212
 11
178.2600511638845
 21
72.781696562319055
  0
LINE
  8
_0-1_図__枠__線
  6
CONTINUOUS
 62
    2
 10
178.2600511638845
 20
72.781696562319055
 11
185.29905199592363
 21
72.781696562319055
  0
POINT
  8
_0-1_図__枠__線
 62
    2
 10
176.19151163192481
 20
69.577488270310212
  0
TEXT
  8
_0-4_求積部の結線
 62
    7
 10
170.60035203405033
 20
52.373661294987599
 40
4
 41
0.925
 50
-90.206220340000115
  1
31.48
  0
TEXT
  8
_0-4_求積部の結線
 62
    7
 10
170.82354543889227
 20
81.611997329280612
 40
4
 41
0.925
 50
-90.005275449999985
  1
10.92
  0
TEXT
  8
_0-2_境界線プロット
 62
    7
 10
168.59161139047296
 20
67.178823816169043
 40
4
 41
0.925
 50
0
  1
KB4
  0
TEXT
  8
_0-2_境界線プロット
 62
    7
 10
179.23049702127167
 20
67.476415022624948
 40
4
 41
0.925
 50
0
  1
KB5
  0
TEXT
  8
_0-1_図__枠__線
 62
    7
 10
173.94825310667932
 20
66.806834808099154
 40
4
 41
0.925
 50
-92.499576829999825
  1
0.70
  0
TEXT
  8
_0-2_境界線プロット
 62
    7
 10
168.66600919208696
 20
54.382401938564968
 40
4
 41
0.925
 50
0
  1
KB7
  0
LINE
  8
_0-1_図__枠__線
  6
CONTINUOUS
 62
    2
 10
176.08273477990195
 20
55.360701682291918
 11
180.23658875003639
 21
48.091457234627399
  0
TEXT
  8
_0-4_求積部の結線
 62
    7
 10
180.12327064063942
 20
48.207384404604866
 40
4
 41
0.925
 50
0
  1
0.12
  0
LINE
  8
_0-1_図__枠__線
  6
CONTINUOUS
 62
    2
 10
180.23658875003639
 20
48.091457234627399
 11
187.86064200849304
 21
48.091457234627399
  0
TEXT
  8
_0-2_境界線プロット
 62
    7
 10
178.26332560028999
 20
54.159208533723046
 40
4
 41
0.925
 50
0
  1
KB6
  0
TEXT
  8
_0-4_求積部の結線
 62
    7
 10
157.28314554514841
 20
60.780612877367005
 40
4
 41
1.25
 50
0
  1
661-8
  0
TEXT
  8
_0-1_図__枠__線
 62
    7
 10
266.95634783506068
 20
202.408392094346
 40
2.7999999999967087
 41
1.0000000000018643
 50
-89.228999999730704
  1
Ｎ
  0
LINE
  8
_0-1_図__枠__線
  6
CONTINUOUS
 62
    3
 10
248.28624240307511
 20
202.14973788234894
 11
248.97546370305611
 21
201.11493874240224
  0
LINE
  8
_0-1_図__枠__線
  6
CONTINUOUS
 62
    3
 10
249.34885493507284
 20
201.48395275037294
 11
248.28624240307511
 21
202.14973788234894
  0
LINE
  8
_0-1_図__枠__線
  6
CONTINUOUS
 62
    3
 10
250.99651302707173
 20
202.18621081036073
 11
249.95220139906417
 21
201.49207216638862
  0
LINE
  8
_0-1_図__枠__線
  6
CONTINUOUS
 62
    3
 10
250.34477108706744
 20
201.14773391837045
 11
250.99651302707173
 21
202.18621081036073
  0
LINE
  8
_0-1_図__枠__線
  6
CONTINUOUS
 62
    3
 10
251.03298595508352
 20
199.47594018237689
 11
250.35353489908414
 21
200.49650281438628
  0
LINE
  8
_0-1_図__枠__線
  6
CONTINUOUS
 62
    3
 10
249.97037342305669
 20
200.14172531836923
 11
251.03298595508352
 21
199.47594018237689
  0
LINE
  8
_0-1_図__枠__線
  6
CONTINUOUS
 62
    3
 10
248.32271532707057
 20
199.43946725838143
 11
249.36702695906536
 21
200.13360590235354
  0
LINE
  8
_0-1_図__枠__線
  6
CONTINUOUS
 62
    3
 10
248.98384087507986
 20
200.49243842237885
 11
248.32271532707057
 21
199.43946725838143
  0
LINE
  8
_0-1_図__枠__線
  6
CONTINUOUS
 62
    3
 10
244.87115017506551
 20
200.74839923441434
 11
249.32420845907438
 21
200.46828286237107
  0
LINE
  8
_0-1_図__枠__線
  6
CONTINUOUS
 62
    3
 10
249.31505800706475
 20
201.14824475037423
 11
244.87115017506551
 21
200.74839923441434
  0
LINE
  8
_0-1_図__枠__線
  6
CONTINUOUS
 62
    3
 10
249.61450631906303
 20
204.16476383442316
 11
249.31505800706475
 21
201.14824475037423
  0
LINE
  8
_0-1_図__枠__線
  6
CONTINUOUS
 62
    3
 10
249.99501989506791
 20
201.15739520235476
 11
249.61450631906303
 21
204.16476383442316
  0
LINE
  8
_0-1_図__枠__線
  6
CONTINUOUS
 62
    3
 10
259.23654218304694
 20
200.94171863437188
 11
249.99501989506791
 21
201.15739520235476
  0
LINE
  8
_0-1_図__枠__線
  6
CONTINUOUS
 62
    3
 10
250.00417034704844
 20
200.4774333143516
 11
259.23654218304694
 21
200.94171863437188
  0
LINE
  8
_0-1_図__枠__線
  6
CONTINUOUS
 62
    3
 10
249.7047220390665
 20
197.46091423036088
 11
250.00417034704844
 21
200.4774333143516
  0
LINE
  8
_0-1_図__枠__線
  6
CONTINUOUS
 62
    3
 10
249.32420845907438
 20
200.46828286237107
 11
249.7047220390665
 21
197.46091423036088
  0
LINE
  8
_0-1_図__枠__線
  6
CONTINUOUS
 62
    3
 10
251.3319187470621
 20
202.53076697837352
 11
247.98730961106742
 21
199.09491108635231
  0
LINE
  8
_0-1_図__枠__線
  6
CONTINUOUS
 62
    3
 10
251.3775421230672
 20
199.14053446634463
 11
247.9416862310751
 21
202.48514360233932
  0
LINE
  8
_0-1_図__枠__線
  6
CONTINUOUS
 62
    3
 10
249.59517437907891
 20
205.6013030343249
 11
249.72405397905061
 21
196.02437503040093
  0
LINE
  8
_0-1_図__枠__線
  6
CONTINUOUS
 62
    3
 10
266.41923818706675
 20
201.03837833440886
 11
242.47691817507405
 21
200.7161793343632
  0
LINE
  8
_0-1_図__枠__線
  6
CONTINUOUS
 62
    3
 10
264.02822817505478
 20
200.7667352343353
 11
266.41923818706675
 21
201.03837833440886
  0
LINE
  8
_0-1_図__枠__線
  6
CONTINUOUS
 62
    3
 10
263.54615978708864
 20
200.99971445438243
 11
264.02822817505478
 21
200.7667352343353
  0
LINE
  8
_0-1_図__枠__線
  6
CONTINUOUS
 62
    3
 10
263.06409139507707
 20
201.23269367437135
 11
263.54615978708864
 21
200.99971445438243
  0
LINE
  8
_0-1_図__枠__線
  6
CONTINUOUS
 62
    3
 10
262.10962058707048
 20
200.98038251439831
 11
263.06409139507707
 21
201.23269367437135
  0
LINE
  8
_0-1_図__枠__線
  6
CONTINUOUS
 62
    3
 10
263.07053537508148
 20
200.75384727432649
 11
262.10962058707048
 21
200.98038251439831
  0
LINE
  8
_0-1_図__枠__線
  6
CONTINUOUS
 62
    3
 10
263.54615978708864
 20
200.99971445438243
 11
263.07053537508148
 21
200.75384727432649
  0
LINE
  8
_0-1_図__枠__線
  6
CONTINUOUS
 62
    3
 10
264.02178419505037
 20
201.24558163438016
 11
263.54615978708864
 21
200.99971445438243
  0
LINE
  8
_0-1_図__枠__線
  6
CONTINUOUS
 62
    3
 10
266.41923818706675
 20
201.03837833440886
 11
264.02178419505037
 21
201.24558163438016
  0
TEXT
  8
_a-0_
 62
    7
 10
216.90042836721281
 20
92.853607336765791
 40
2
 41
2
 50
0
  1
KB1
  0
TEXT
  8
_a-0_
 62
    7
 10
216.90042836721281
 20
88.853607336765791
 40
2
 41
2
 50
0
  1
KB2
  0
TEXT
  8
_a-0_
 62
    7
 10
216.90042836721281
 20
84.853607336765791
 40
2
 41
2
 50
0
  1
KB3
  0
TEXT
  8
_a-0_
 62
    7
 10
216.90042836721281
 20
80.853607336765791
 40
2
 41
2
 50
0
  1
KB4
  0
TEXT
  8
_a-0_
 62
    7
 10
216.90042836721281
 20
76.853607336765791
 40
2
 41
2
 50
0
  1
KB5
  0
TEXT
  8
_a-0_
 62
    7
 10
216.90042836721281
 20
72.853607336765791
 40
2
 41
2
 50
0
  1
KB6
  0
TEXT
  8
_a-0_
 62
    7
 10
216.90042836721281
 20
68.853607336765791
 40
2
 41
2
 50
0
  1
KB7
  0
TEXT
  8
_a-0_
 62
    7
 10
216.90042836721281
 20
64.853607336765791
 40
2
 41
2
 50
0
  1
KB8
  0
TEXT
  8
_a-0_
 62
    7
 10
212.90042836721281
 20
60.853607336765791
 40
2
 41
2
 50
0
  1
KA124
  0
TEXT
  8
_a-0_
 62
    7
 10
212.90042836721281
 20
56.853607336765791
 40
2
 41
2
 50
0
  1
KA123
  0
TEXT
  8
_a-0_
 62
    7
 10
218.90042836721278
 20
52.853607336765791
 40
2
 41
2
 50
0
  1
B1
  0
TEXT
  8
_a-0_
 62
    7
 10
218.90042836721278
 20
48.853607336765791
 40
2
 41
2
 50
0
  1
B2
  0
TEXT
  8
_a-0_
 62
    7
 10
218.90042836721278
 20
44.853607336765791
 40
2
 41
2
 50
0
  1
B3
  0
TEXT
  8
_a-0_
 62
    7
 10
210.90042836721281
 20
40.853607336765791
 40
2
 41
2
 50
0
  1
K156-1
  0
TEXT
  8
_a-0_
 62
    7
 10
218.90042836721278
 20
36.853607336765791
 40
2
 41
2
 50
0
  1
P9
  0
TEXT
  8
_a-0_
 62
    7
 10
216.90042836721281
 20
32.853607336765791
 40
2
 41
2
 50
0
  1
KB1
  0
TEXT
  8
_a-0_
 62
    7
 10
235.61722687347014
 20
92.853607336765791
 40
2
 41
2
 50
0
  1
-129323.471
  0
TEXT
  8
_a-0_
 62
    7
 10
235.61722687347014
 20
88.853607336765791
 40
2
 41
2
 50
0
  1
-129323.634
  0
TEXT
  8
_a-0_
 62
    7
 10
235.61722687347014
 20
84.853607336765791
 40
2
 41
2
 50
0
  1
-129323.665
  0
TEXT
  8
_a-0_
 62
    7
 10
235.61722687347014
 20
76.853607336765791
 40
2
 41
2
 50
0
  1
-129323.673
  0
TEXT
  8
_a-0_
 62
    7
 10
235.61722687347014
 20
72.853607336765791
 40
2
 41
2
 50
0
  1
-129323.713
  0
TEXT
  8
_a-0_
 62
    7
 10
235.61722687347014
 20
68.853607336765791
 40
2
 41
2
 50
0
  1
-129323.833
  0
TEXT
  8
_a-0_
 62
    7
 10
235.61722687347014
 20
64.853607336765791
 40
2
 41
2
 50
0
  1
-129324.370
  0
TEXT
  8
_a-0_
 62
    7
 10
235.61722687347014
 20
60.853607336765791
 40
2
 41
2
 50
0
  1
-129327.227
  0
TEXT
  8
_a-0_
 62
    7
 10
235.61722687347014
 20
56.853607336765791
 40
2
 41
2
 50
0
  1
-129326.553
  0
TEXT
  8
_a-0_
 62
    7
 10
235.61722687347014
 20
52.853607336765791
 40
2
 41
2
 50
0
  1
-129173.066
  0
TEXT
  8
_a-0_
 62
    7
 10
235.61722687347014
 20
48.853607336765791
 40
2
 41
2
 50
0
  1
-129172.005
  0
TEXT
  8
_a-0_
 62
    7
 10
235.61722687347014
 20
44.853607336765791
 40
2
 41
2
 50
0
  1
-129151.224
  0
TEXT
  8
_a-0_
 62
    7
 10
235.61722687347014
 20
40.853607336765791
 40
2
 41
2
 50
0
  1
-129150.795
  0
TEXT
  8
_a-0_
 62
    7
 10
235.61722687347014
 20
36.853607336765791
 40
2
 41
2
 50
0
  1
-129320.741
  0
TEXT
  8
_a-0_
 62
    7
 10
235.61722687347014
 20
32.853607336765791
 40
2
 41
2
 50
0
  1
-129323.471
  0
TEXT
  8
_a-0_
 62
    7
 10
252.61722687347014
 20
28.853607336765791
 40
2
 41
2
 50
0
  1
20203.795884
  0
TEXT
  8
_a-0_
 62
    7
 10
252.61722687347014
 20
24.853607336765791
 40
2
 41
2
 50
0
  1
10101.897942
  0
TEXT
  8
_a-0_
 62
    7
 10
268.3203690091903
 20
92.853607336765791
 40
2
 41
2
 50
0
  1
-35687.586
  0
TEXT
  8
_a-0_
 62
    7
 10
268.3203690091903
 20
88.853607336765791
 40
2
 41
2
 50
0
  1
-35676.935
  0
TEXT
  8
_a-0_
 62
    7
 10
268.3203690091903
 20
84.853607336765791
 40
2
 41
2
 50
0
  1
-35676.934
  0
TEXT
  8
_a-0_
 62
    7
 10
268.3203690091903
 20
80.853607336765791
 40
2
 41
2
 50
0
  1
-35666.011
  0
TEXT
  8
_a-0_
 62
    7
 10
268.3203690091903
 20
76.853607336765791
 40
2
 41
2
 50
0
  1
-35666.003
  0
TEXT
  8
_a-0_
 62
    7
 10
268.3203690091903
 20
72.853607336765791
 40
2
 41
2
 50
0
  1
-35665.303
  0
TEXT
  8
_a-0_
 62
    7
 10
268.3203690091903
 20
68.853607336765791
 40
2
 41
2
 50
0
  1
-35665.306
  0
TEXT
  8
_a-0_
 62
    7
 10
268.3203690091903
 20
64.853607336765791
 40
2
 41
2
 50
0
  1
-35633.824
  0
TEXT
  8
_a-0_
 62
    7
 10
268.3203690091903
 20
60.853607336765791
 40
2
 41
2
 50
0
  1
-35633.693
  0
TEXT
  8
_a-0_
 62
    7
 10
268.3203690091903
 20
56.853607336765791
 40
2
 41
2
 50
0
  1
-35629.061
  0
TEXT
  8
_a-0_
 62
    7
 10
268.3203690091903
 20
52.853607336765791
 40
2
 41
2
 50
0
  1
-35623.015
  0
TEXT
  8
_a-0_
 62
    7
 10
268.3203690091903
 20
48.853607336765791
 40
2
 41
2
 50
0
  1
-35669.010
  0
TEXT
  8
_a-0_
 62
    7
 10
268.3203690091903
 20
44.853607336765791
 40
2
 41
2
 50
0
  1
-35669.395
  0
TEXT
  8
_a-0_
 62
    7
 10
268.3203690091903
 20
40.853607336765791
 40
2
 41
2
 50
0
  1
-35688.568
  0
TEXT
  8
_a-0_
 62
    7
 10
268.3203690091903
 20
36.853607336765791
 40
2
 41
2
 50
0
  1
-35690.855
  0
TEXT
  8
_a-0_
 62
    7
 10
268.3203690091903
 20
32.853607336765791
 40
2
 41
2
 50
0
  1
-35687.586
  0
TEXT
  8
_a-0_
 62
    7
 10
300.45718467157593
 20
88.853607336765791
 40
2
 41
2
 50
0
  1
10.65
  0
TEXT
  8
_a-0_
 62
    7
 10
302.45718467157593
 20
84.853607336765791
 40
2
 41
2
 50
0
  1
0.03
  0
TEXT
  8
_a-0_
 62
    7
 10
300.45718467157593
 20
80.853607336765791
 40
2
 41
2
 50
0
  1
10.92
  0
TEXT
  8
_a-0_
 62
    7
 10
302.45718467157593
 20
76.853607336765791
 40
2
 41
2
 50
0
  1
0.14
  0
TEXT
  8
_a-0_
 62
    7
 10
302.45718467157593
 20
72.853607336765791
 40
2
 41
2
 50
0
  1
0.70
  0
TEXT
  8
_a-0_
 62
    7
 10
302.45718467157593
 20
68.853607336765791
 40
2
 41
2
 50
0
  1
0.12
  0
TEXT
  8
_a-0_
 62
    7
 10
300.45718467157593
 20
64.853607336765791
 40
2
 41
2
 50
0
  1
31.48
  0
TEXT
  8
_a-0_
 62
    7
 10
302.45718467157593
 20
60.853607336765791
 40
2
 41
2
 50
0
  1
2.86
  0
TEXT
  8
_a-0_
 62
    7
 10
302.45718467157593
 20
56.853607336765791
 40
2
 41
2
 50
0
  1
4.68
  0
TEXT
  8
_a-0_
 62
    7
 10
298.45718467157593
 20
52.853607336765791
 40
2
 41
2
 50
0
  1
153.60
  0
TEXT
  8
_a-0_
 62
    7
 10
300.45718467157593
 20
48.853607336765791
 40
2
 41
2
 50
0
  1
46.00
  0
TEXT
  8
_a-0_
 62
    7
 10
300.45718467157593
 20
44.853607336765791
 40
2
 41
2
 50
0
  1
20.78
  0
TEXT
  8
_a-0_
 62
    7
 10
300.45718467157593
 20
40.853607336765791
 40
2
 41
2
 50
0
  1
19.17
  0
TEXT
  8
_a-0_
 62
    7
 10
298.45718467157593
 20
36.853607336765791
 40
2
 41
2
 50
0
  1
169.96
  0
TEXT
  8
_a-0_
 62
    7
 10
302.45718467157593
 20
32.853607336765791
 40
2
 41
2
 50
0
  1
4.25
  0
TEXT
  8
_a-0_
 62
    7
 10
252.66670150467067
 20
20.653814548431924
 40
2
 41
2
 50
0
  1
10101.89
  0
TEXT
  8
_a-0_
 62
    7
 10
235.61722687347014
 20
80.853607336765791
 40
2
 41
2
 50
0
  1
-129323.813
  0
LINE
  8
_0-4_求積部の結線
  6
CONTINUOUS
 62
    1
 10
181.56359753999277
 20
127.72715167998103
 11
272.78133325203089
 21
125.36279551201733
  0
LINE
  8
_0-4_求積部の結線
  6
CONTINUOUS
 62
    1
 10
273.18503383602365
 20
125.75240073597524
 11
273.61933976400178
 21
170.95756042801077
  0
LINE
  8
_0-4_求積部の結線
  6
CONTINUOUS
 62
    1
 10
121.85739321602159
 20
165.22835112793837
 11
121.74688271200284
 21
134.5244996920228
  0
LINE
  8
_0-4_求積部の結線
  6
CONTINUOUS
 62
    1
 10
121.34614478002186
 20
134.10079667996615
 11
119.28976212002453
 21
133.97875815595035
  0
LINE
  8
_0-4_求積部の結線
  6
CONTINUOUS
 62
    1
 10
118.9533832759771
 20
133.56003758398583
 11
119.56381230399711
 21
129.72757880797144
  0
LINE
  8
_0-4_求積部の結線
  6
CONTINUOUS
 62
    1
 10
120.02659751600004
 20
129.32218563597417
 11
181.56359753999277
 21
127.72715167998103
  0
LINE
  8
_0-4_求積部の結線
  6
CONTINUOUS
 62
    1
 10
181.56359753999277
 20
191.19916705193464
 11
125.00670106400503
 21
191.19916224799817
  0
LINE
  8
_0-4_求積部の結線
  6
CONTINUOUS
 62
    1
 10
124.35445803200128
 20
190.88872087193886
 11
122.17317959200591
 21
188.20416604395723
  0
POINT
  8
_0-2_境界線プロット
 62
    2
 10
273.18119863999891
 20
125.35241911996854
  0
CIRCLE
  8
_0-2_境界線プロット
  6
CONTINUOUS
 62
    2
 10
273.18119863999891
 20
125.35241911996854
 40
0.4
  0
POINT
  8
_0-2_境界線プロット
 62
    2
 10
273.62317931198049
 20
171.35754199995426
  0
CIRCLE
  8
_0-2_境界線プロット
  6
CONTINUOUS
 62
    2
 10
273.62317931198049
 20
171.35754199995426
 40
0.4
  0
POINT
  8
_0-2_境界線プロット
 62
    2
 10
121.92093658400699
 20
187.8937252839678
  0
CIRCLE
  8
_0-2_境界線プロット
  6
CONTINUOUS
 62
    2
 10
121.92093658400699
 20
187.8937252839678
 40
0.4
  0
POINT
  8
_0-2_境界線プロット
 62
    2
 10
121.74544172000606
 20
134.12450228794478
  0
CIRCLE
  8
_0-2_境界線プロット
  6
CONTINUOUS
 62
    2
 10
121.74544172000606
 20
134.12450228794478
 40
0.4
  0
POINT
  8
_0-2_境界線プロット
 62
    2
 10
118.89046484802384
 20
133.95505817997037
  0
CIRCLE
  8
_0-2_境界線プロット
  6
CONTINUOUS
 62
    2
 10
118.89046484802384
 20
133.95505817997037
 40
0.4
  0
POINT
  8
_0-2_境界線プロット
 62
    2
 10
119.62673203201848
 20
129.33255841996288
  0
CIRCLE
  8
_0-2_境界線プロット
  6
CONTINUOUS
 62
    2
 10
119.62673203201848
 20
129.33255841996288
 40
0.4
  0
POINT
  8
_0-2_境界線プロット
 62
    2
 10
124.60670106398175
 20
191.19916160794673
  0
CIRCLE
  8
_0-2_境界線プロット
  6
CONTINUOUS
 62
    2
 10
124.60670106398175
 20
191.19916160794673
 40
0.4
  0
LINE
  8
_0-1_図__枠__線
  6
CONTINUOUS
 62
    2
 10
123.00934372402844
 20
189.23325449996628
 11
119.04580272399471
 21
190.84221668797545
  0
LINE
  8
_0-1_図__枠__線
  6
CONTINUOUS
 62
    2
 10
119.04580272399471
 20
190.84221668797545
 11
112.57940327201504
 21
190.84221668797545
  0
POINT
  8
_0-1_図__枠__線
 62
    2
 10
123.00934372402844
 20
189.23325449996628
  0
POINT
  8
_0-1_図__枠__線
 62
    2
 10
119.13619080002536
 20
132.41231645201333
  0
LINE
  8
_0-1_図__枠__線
  6
CONTINUOUS
 62
    2
 10
120.24398806001409
 20
134.03538785199635
 11
123.56244286001311
 21
130.89728385594208
  0
LINE
  8
_0-1_図__枠__線
  6
CONTINUOUS
 62
    2
 10
123.56244286001311
 20
130.89728385594208
 11
129.99242390002473
 21
130.89728385594208
  0
POINT
  8
_0-1_図__枠__線
 62
    2
 10
120.24398806001409
 20
134.03538785199635
  0
LINE
  8
_0-1_図__枠__線
  6
CONTINUOUS
 62
    2
 10
119.13619080002536
 20
132.41231645201333
 11
114.39429142355019
 21
130.19943007381448
  0
TEXT
  8
_0-4_求積部の結線
 62
    7
 10
106.99549649408281
 20
130.18258436984317
 40
3
 41
1
 50
0
  1
4.68
  0
TEXT
  8
_0-4_求積部の結線
 62
    7
 10
123.59132379443076
 20
130.87407717402434
 40
3
 41
1
 50
0
  1
2.86
  0
TEXT
  8
_0-2_境界線プロット
 62
    7
 10
122.53103482801964
 20
134.93083495855382
 40
3
 41
1
 50
0
  1
KB8
  0
TEXT
  8
_0-2_境界線プロット
 62
    7
 10
110.68345811638235
 20
135.39183016134126
 40
3
 41
1
 50
0
  1
KA124
  0
TEXT
  8
_0-2_境界線プロット
 62
    7
 10
274.93604886954824
 20
123.40595488886775
 40
3
 41
1
 50
0
  1
B1
  0
TEXT
  8
_0-4_求積部の結線
 62
    7
 10
269.49015887395257
 20
153.86851788906196
 40
3
 41
1
 50
-90.55044879999997
  1
46.00
  0
TEXT
  8
_0-2_境界線プロット
 62
    7
 10
269.09677630090727
 20
171.57073367609979
 40
3
 41
1
 50
0
  1
B2
  0
TEXT
  8
_0-4_求積部の結線
 62
    7
 10
279.91479705965259
 20
171.57073367609979
 40
3
 41
1
 50
1.8323712059999895
  1
20.78
  0
TEXT
  8
_0-2_境界線プロット
 62
    7
 10
295.25671740841869
 20
167.63690794564693
 40
3
 41
1
 50
0
  1
B3
  0
TEXT
  8
_0-2_境界線プロット
 62
    7
 10
294.46995226232809
 20
192.22331876097721
 40
3
 41
1
 50
0
  1
K156-1
  0
TEXT
  8
_0-4_求積部の結線
 62
    7
 10
294.66664354885074
 20
186.91265402486587
 40
3
 41
1
 50
-90.510791530000049
  1
19.17
  0
TEXT
  8
_0-4_求積部の結線
 62
    7
 10
201.63166502364098
 20
186.81430838160455
 40
3
 41
1
 50
0.0000048265633919
  1
169.96
  0
TEXT
  8
_0-4_求積部の結線
 62
    7
 10
111.57124153965066
 20
191.10538376728223
 40
3
 41
1
 50
0
  1
4.25
  0
TEXT
  8
_0-2_境界線プロット
 62
    7
 10
114.52015386499752
 20
185.904574757125
 40
3
 41
1
 50
0
  1
KB1
  0
TEXT
  8
_0-2_境界線プロット
 62
    7
 10
124.33198942024258
 20
191.85601599555235
 40
3
 41
1
 50
0
  1
P9
  0
TEXT
  8
_0-2_境界線プロット
 62
    7
 10
119.35016792878629
 20
124.14354721332766
 40
3
 41
1
 50
0
  1
KA123
  0
TEXT
  8
_0-4_求積部の結線
 62
    7
 10
192.8789027733834
 20
128.38470307897214
 40
3
 41
1
 50
-1.4847692650000039
  1
153.60
  0
TEXT
  8
_0-4_求積部の結線
 62
    7
 10
129.69737356398292
 20
179.7595741063146
 40
3
 41
1
 50
0
  1
拡大図1
  0
TEXT
  8
_0-4_求積部の結線
 62
    7
 10
135.64521850770058
 20
168.38869406685438
 40
3
 41
1
 50
0
  1
拡大図2
  0
LINE
  8
_0-4_求積部の結線
  6
CONTINUOUS
 62
    1
 10
121.92019728801097
 20
187.49372596800094
 11
121.90200961200753
 21
177.64149456797168
  0
TEXT
  8
_0-2_境界線プロット
 62
    7
 10
122.86042372399243
 20
176.54598389600869
 40
2
 41
1
 50
0
  1
KB2
  0
TEXT
  8
_0-4_求積部の結線
 62
    7
 10
114.86562085602782
 20
179.55777780798962
 40
2
 41
1
 50
0
  1
0.03
  0
LINE
  8
_0-4_求積部の結線
  6
CONTINUOUS
 62
    1
 10
121.87025086401263
 20
176.84269980399404
 11
121.86931847198866
 21
166.71607970795594
  0
TEXT
  8
_0-4_求積部の結線
 62
    7
 10
120.06549312593415
 20
175.61484855122399
 40
2
 41
1
 50
-90.005275450393384
  1
10.92
  0
TEXT
  8
_0-4_求積部の結線
 62
    7
 10
123.29088864801452
 20
169.17252231994644
 40
2
 41
1
 50
0
  1
0.14
  0
TEXT
  8
_0-4_求積部の結線
 62
    7
 10
128.74202981998678
 20
166.68113657599315
 40
2
 41
1
 50
0
  1
0.70
  0
TEXT
  8
_0-2_境界線プロット
 62
    7
 10
117.36843912000768
 20
163.88602177600842
 40
2
 41
1
 50
0
  1
KB7
  0
LINE
  8
_0-1_図__枠__線
  6
dashed
 62
    2
 10
113.55081417199108
 20
183.623298055958
 11
128.55081417199108
 21
183.623298055958
  0
LINE
  8
_0-1_図__枠__線
  6
dashed
 62
    2
 10
128.55081417199108
 20
183.623298055958
 11
128.55081417199108
 21
175.623298055958
  0
LINE
  8
_0-1_図__枠__線
  6
dashed
 62
    2
 10
128.55081417199108
 20
175.623298055958
 11
113.55081417199108
 21
175.623298055958
  0
LINE
  8
_0-1_図__枠__線
  6
dashed
 62
    2
 10
113.55081417199108
 20
175.623298055958
 11
113.55081417199108
 21
183.623298055958
  0
LINE
  8
_0-1_図__枠__線
  6
dashed
 62
    2
 10
114.55372617600369
 20
172.41496066394029
 11
134.55372617600369
 21
172.41496066394029
  0
LINE
  8
_0-1_図__枠__線
  6
dashed
 62
    2
 10
134.55372617600369
 20
172.41496066394029
 11
134.55372617600369
 21
160.41496066394029
  0
LINE
  8
_0-1_図__枠__線
  6
dashed
 62
    2
 10
134.55372617600369
 20
160.41496066394029
 11
114.55372617600369
 21
160.41496066394029
  0
LINE
  8
_0-1_図__枠__線
  6
dashed
 62
    2
 10
114.55372617600369
 20
160.41496066394029
 11
114.55372617600369
 21
172.41496066394029
  0
POINT
  8
_0-2_境界線プロット
 62
    2
 10
121.90127007602132
 20
177.24149525200482
  0
CIRCLE
  8
_0-2_境界線プロット
  6
CONTINUOUS
 62
    2
 10
121.90127007602132
 20
177.24149525200482
 40
0.4
  0
POINT
  8
_0-2_境界線プロット
 62
    2
 10
121.87028820402338
 20
177.24007114797132
  0
CIRCLE
  8
_0-2_境界線プロット
  6
CONTINUOUS
 62
    2
 10
121.87028820402338
 20
177.24007114797132
 40
0.4
  0
POINT
  8
_0-2_境界線プロット
 62
    2
 10
121.86928343202453
 20
166.31607970793266
  0
CIRCLE
  8
_0-2_境界線プロット
  6
CONTINUOUS
 62
    2
 10
121.86928343202453
 20
166.31607970793266
 40
0.4
  0
POINT
  8
_0-2_境界線プロット
 62
    2
 10
122.00937794000492
 20
166.30995341198286
  0
CIRCLE
  8
_0-2_境界線プロット
  6
CONTINUOUS
 62
    2
 10
122.00937794000492
 20
166.30995341198286
 40
0.4
  0
POINT
  8
_0-2_境界線プロット
 62
    2
 10
121.97879986400949
 20
165.60948158398969
  0
CIRCLE
  8
_0-2_境界線プロット
  6
CONTINUOUS
 62
    2
 10
121.97879986400949
 20
165.60948158398969
 40
0.4
  0
POINT
  8
_0-2_境界線プロット
 62
    2
 10
121.85877134799375
 20
165.610872575955
  0
CIRCLE
  8
_0-2_境界線プロット
  6
CONTINUOUS
 62
    2
 10
121.85877134799375
 20
165.610872575955
 40
0.4
  0
LINE
  8
_0-1_図__枠__線
  6
CONTINUOUS
 62
    2
 10
121.84726079198299
 20
177.68486173998099
 11
120.1958771640202
 21
179.28802978800377
  0
LINE
  8
_0-1_図__枠__線
  6
CONTINUOUS
 62
    2
 10
120.1958771640202
 20
179.28802978800377
 11
114.69930098799523
 21
179.28802978800377
  0
POINT
  8
_0-1_図__枠__線
 62
    2
 10
121.84726079198299
 20
177.68486173998099
  0
LINE
  8
_0-1_図__枠__線
  6
CONTINUOUS
 62
    2
 10
122.02532506000716
 20
166.77968523197342
 11
123.05480148000061
 21
169.04731572797755
  0
LINE
  8
_0-1_図__枠__線
  6
CONTINUOUS
 62
    2
 10
123.05480148000061
 20
169.04731572797755
 11
128.41086124398862
 21
169.04731572797755
  0
POINT
  8
_0-1_図__枠__線
 62
    2
 10
122.02532506000716
 20
166.77968523197342
  0
LINE
  8
_0-1_図__枠__線
  6
CONTINUOUS
 62
    2
 10
121.93391233199509
 20
165.10394667601213
 11
123.22720805200515
 21
162.01265446795151
  0
LINE
  8
_0-1_図__枠__線
  6
CONTINUOUS
 62
    2
 10
123.22720805200515
 20
162.01265446795151
 11
128.49502232400118
 21
162.01265446795151
  0
POINT
  8
_0-1_図__枠__線
 62
    2
 10
121.93391233199509
 20
165.10394667601213
  0
LINE
  8
_0-1_図__枠__線
  6
CONTINUOUS
 62
    2
 10
122.35975360398879
 20
165.8925416279817
 11
128.13226864801254
 21
166.52341758797411
  0
LINE
  8
_0-1_図__枠__線
  6
CONTINUOUS
 62
    2
 10
128.13226864801254
 20
166.52341758797411
 11
133.69974900002126
 21
166.52341758797411
  0
POINT
  8
_0-1_図__枠__線
 62
    2
 10
122.35975360398879
 20
165.8925416279817
  0
TEXT
  8
_0-4_求積部の結線
 62
    7
 10
120.19545916843344
 20
186.50524793419754
 40
2
 41
1
 50
-90.10577052000005
  1
10.65
  0
TEXT
  8
_0-2_境界線プロット
 62
    7
 10
117.81036163090428
 20
166.07136960899032
 40
2
 41
1
 50
0
  1
KB4
  0
TEXT
  8
_0-4_求積部の結線
 62
    7
 10
123.50591620105718
 20
162.04280662034557
 40
2
 41
1
 50
0
  1
0.12
  0
TEXT
  8
_0-2_境界線プロット
 62
    7
 10
122.95025234055446
 20
163.91817214954227
 40
2
 41
1
 50
0
  1
KB6
  0
TEXT
  8
_0-2_境界線プロット
 62
    7
 10
122.95025234055446
 20
166.5575754869302
 40
2
 41
1
 50
0
  1
KB5
  0
TEXT
  8
_0-2_境界線プロット
 62
    7
 10
117.39361373552724
 20
176.49006699341632
 40
2
 41
1
 50
0
  1
KB3
  0
TEXT
  8
_0-4_求積部の結線
 62
    7
 10
118.82906761327645
 20
154.20041166597514
 40
3
 41
1
 50
-90.206220340000058
  1
31.48
  0
TEXT
  8
_0-4_求積部の結線
 62
    7
 10
98.741973917344197
 20
167.34079848840133
 40
5
 41
1
 50
0
  1
661-8
  0
TEXT
  8
_0-4_求積部の結線
 62
    7
 10
100.74379233038732
 20
121.48892058673347
 40
5
 41
1
 50
0
  1
水路敷
  0
TEXT
  8
_0-4_求積部の結線
 62
    7
 10
123.77449794747396
 20
117.46830830529663
 40
5
 41
1
 50
0
  1
670-6
  0
TEXT
  8
_0-4_求積部の結線
 62
    7
 10
147.41730048683036
 20
118.33796644958964
 40
5
 41
1
 50
0
  1
670-8
  0
TEXT
  8
_0-4_求積部の結線
 62
    7
 10
170.95117785041083
 20
117.66086618245149
 40
5
 41
1
 50
0
  1
668-3
  0
TEXT
  8
_0-4_求積部の結線
 62
    7
 10
192.12146230755852
 20
118.14103181601816
 40
5
 41
1
 50
0
  1
667-3
  0
TEXT
  8
_0-4_求積部の結線
 62
    7
 10
222.55668892790914
 20
117.27575042814179
 40
5
 41
1
 50
0
  1
665-3
  0
TEXT
  8
_0-4_求積部の結線
 62
    7
 10
251.00491774543391
 20
116.56555474744624
 40
5
 41
1
 50
0
  1
663-3
  0
TEXT
  8
_0-4_求積部の結線
 62
    7
 10
279.1665703461569
 20
116.76248938101773
 40
5
 41
1
 50
0
  1
661-4
  0
TEXT
  8
_0-4_求積部の結線
 62
    7
 10
280.1700273079914
 20
149.89858651597751
 40
5
 41
1
 50
0
  1
661-9
  0
TEXT
  8
_0-4_求積部の結線
 62
    7
 10
303.78339954259314
 20
181.55398382603781
 40
5
 41
1
 50
0
  1
661-2
  0
TEXT
  8
_0-4_求積部の結線
 62
    7
 10
195.1408525683938
 20
196.84556399425929
 40
5
 41
1
 50
0
  1
661-7
  0
TEXT
  8
_0-4_求積部の結線
 62
    7
 10
194.46248617576458
 20
155.61120268765259
 40
5
 41
1
 50
0
  1
661
  0
TEXT
  8
_0-1_図__枠__線
 62
    7
 10
176.40545003376565
 20
164.5400885150371
 40
5
 41
1
 50
0
  1
高槻市津之江町三丁目
  0
TEXT
  8
_0-4_求積部の結線
 62
    7
 10
264.99463148010329
 20
113.52918128179917
 40
5
 41
1
 50
0
  1
662-5
  0
TEXT
  8
_0-4_求積部の結線
 62
    7
 10
236.55181593036826
 20
114.84192661486387
 40
5
 41
1
 50
0
  1
664-3
  0
TEXT
  8
_0-4_求積部の結線
 62
    7
 10
207.01504593641266
 20
115.49829928139621
 40
5
 41
1
 50
0
  1
666-3
  0
TEXT
  8
_a-0_
 62
    7
 10
241.11722687347014
 20
102.85360733676579
 40
4
 41
1
 50
0
  1
座　標　求　積　表
  0
TEXT
  8
_a-0_
 62
    7
 10
233.61722687347014
 20
28.353607336765791
 40
3
 41
1
 50
0
  1
倍面積
  0
TEXT
  8
_a-0_
 62
    7
 10
233.61722687347014
 20
24.353607336765776
 40
3
 41
1
 50
0
  1
面　積
  0
TEXT
  8
_a-0_
 62
    7
 10
233.61722687347014
 20
20.15381454843191
 40
3
 41
1
 50
0
  1
地　積
  0
TEXT
  8
_a-0_
 62
    7
 10
284.61722687347014
 20
28.353607336765805
 40
3
 41
1
 50
0
  1
㎡
  0
TEXT
  8
_a-0_
 62
    7
 10
284.61722687347014
 20
24.353607336765776
 40
3
 41
1
 50
0
  1
㎡
  0
TEXT
  8
_a-0_
 62
    7
 10
271.66670150467064
 20
20.15381454843191
 40
3
 41
1
 50
0
  1
㎡
  0
TEXT
  8
_a-0_
 62
    7
 10
215.90042836721281
 20
97.853607336765791
 40
3
 41
1
 50
0
  1
ＮＯ
  0
TEXT
  8
_a-0_
 62
    7
 10
242.40377369615072
 20
97.853607336765791
 40
3
 41
1
 50
0
  1
Ｘ
  0
TEXT
  8
_a-0_
 62
    7
 10
273.63734242539419
 20
97.853607336765791
 40
3
 41
1
 50
0
  1
Ｙ
  0
TEXT
  8
_a-0_
 62
    7
 10
296.45718467157593
 20
97.853607336765791
 40
3
 41
1
 50
0
  1
辺　　長
  0
LINE
  8
_a-0_
  6
CONTINUOUS
 62
    7
 10
228.50962431386688
 20
101.85360733676579
 11
228.50962431386688
 21
96.853607336765791
  0
LINE
  8
_a-0_
  6
CONTINUOUS
 62
    7
 10
259.61722687347014
 20
101.85360733676579
 11
259.61722687347014
 21
96.853607336765791
  0
LINE
  8
_a-0_
  6
CONTINUOUS
 62
    7
 10
290.32036900919036
 20
101.85360733676579
 11
290.32036900919036
 21
96.853607336765791
  0
LINE
  8
_a-0_
  6
CONTINUOUS
 62
    7
 10
207.18899825140858
 20
101.85360733676579
 11
207.18899825140858
 21
19.353607336765776
  0
LINE
  8
_a-0_
  6
CONTINUOUS
 62
    7
 10
314.10043068864235
 20
101.85360733676579
 11
314.10043068864235
 21
19.353607336765776
  0
LINE
  8
_a-0_
  6
CONTINUOUS
 62
    7
 10
207.18899825140858
 20
23.853607336765791
 11
314.10043068864235
 21
23.853607336765791
  0
LINE
  8
_a-0_
  6
CONTINUOUS
 62
    7
 10
207.18899825140858
 20
28.353607336765791
 11
314.10043068864235
 21
28.353607336765791
  0
LINE
  8
_a-0_
  6
CONTINUOUS
 62
    7
 10
207.18899825140858
 20
19.353607336765776
 11
314.10043068864235
 21
19.353607336765776
  0
LINE
  8
_a-0_
  6
CONTINUOUS
 62
    7
 10
207.18899825140858
 20
96.853607336765791
 11
314.10043068864235
 21
96.853607336765791
  0
LINE
  8
_a-0_
  6
CONTINUOUS
 62
    7
 10
207.18899825140858
 20
101.85360733676579
 11
314.10043068864235
 21
101.85360733676579
  0
LINE
  8
_a-0_
  6
CONTINUOUS
 62
    7
 10
314.10043068864235
 20
92.853607336765791
 11
207.18899825140858
 21
92.853607336765791
  0
LINE
  8
_a-0_
  6
CONTINUOUS
 62
    7
 10
314.10043068864235
 20
88.853607336765791
 11
207.18899825140858
 21
88.853607336765791
  0
LINE
  8
_a-0_
  6
CONTINUOUS
 62
    7
 10
314.10043068864235
 20
84.853607336765791
 11
207.18899825140858
 21
84.853607336765791
  0
LINE
  8
_a-0_
  6
CONTINUOUS
 62
    7
 10
314.10043068864235
 20
80.853607336765791
 11
207.18899825140858
 21
80.853607336765791
  0
LINE
  8
_a-0_
  6
CONTINUOUS
 62
    7
 10
314.10043068864235
 20
76.853607336765791
 11
207.18899825140858
 21
76.853607336765791
  0
LINE
  8
_a-0_
  6
CONTINUOUS
 62
    7
 10
314.10043068864235
 20
72.853607336765791
 11
207.18899825140858
 21
72.853607336765791
  0
LINE
  8
_a-0_
  6
CONTINUOUS
 62
    7
 10
314.10043068864235
 20
68.853607336765791
 11
207.18899825140858
 21
68.853607336765791
  0
LINE
  8
_a-0_
  6
CONTINUOUS
 62
    7
 10
314.10043068864235
 20
64.853607336765791
 11
207.18899825140858
 21
64.853607336765791
  0
LINE
  8
_a-0_
  6
CONTINUOUS
 62
    7
 10
314.10043068864235
 20
60.853607336765791
 11
207.18899825140858
 21
60.853607336765791
  0
LINE
  8
_a-0_
  6
CONTINUOUS
 62
    7
 10
314.10043068864235
 20
56.853607336765791
 11
207.18899825140858
 21
56.853607336765791
  0
LINE
  8
_a-0_
  6
CONTINUOUS
 62
    7
 10
314.10043068864235
 20
52.853607336765791
 11
207.18899825140858
 21
52.853607336765791
  0
LINE
  8
_a-0_
  6
CONTINUOUS
 62
    7
 10
314.10043068864235
 20
48.853607336765791
 11
207.18899825140858
 21
48.853607336765791
  0
LINE
  8
_a-0_
  6
CONTINUOUS
 62
    7
 10
314.10043068864235
 20
44.853607336765791
 11
207.18899825140858
 21
44.853607336765791
  0
LINE
  8
_a-0_
  6
CONTINUOUS
 62
    7
 10
314.10043068864235
 20
40.853607336765791
 11
207.18899825140858
 21
40.853607336765791
  0
LINE
  8
_a-0_
  6
CONTINUOUS
 62
    7
 10
314.10043068864235
 20
36.853607336765791
 11
207.18899825140858
 21
36.853607336765791
  0
LINE
  8
_a-0_
  6
CONTINUOUS
 62
    7
 10
314.10043068864235
 20
32.853607336765791
 11
207.18899825140858
 21
32.853607336765791
  0
LINE
  8
_a-0_
  6
CONTINUOUS
 62
    7
 10
228.50962431386688
 20
96.853607336765791
 11
228.50962431386688
 21
32.853607336765791
  0
LINE
  8
_a-0_
  6
CONTINUOUS
 62
    7
 10
259.61722687347014
 20
96.853607336765791
 11
259.61722687347014
 21
32.853607336765791
  0
LINE
  8
_a-0_
  6
CONTINUOUS
 62
    7
 10
290.32036900919036
 20
96.853607336765791
 11
290.32036900919036
 21
32.853607336765791
  0
ENDSEC
  0
EOF
