  0
SECTION
  2
HEADER
  9
$ACADVER
  1
AC1009
  9
$INSBASE
 10
0
 20
0
 30
0
  9
$EXTMIN
 10
0
 20
0
  9
$EXTMAX
 10
49.5
 20
35
  9
$LIMMIN
 10
0
 20
0
  9
$LIMMAX
 10
49.5
 20
35
  9
$LTSCALE
 40
0.1666666666666666
  0
ENDSEC
  0
SECTION
  2
TABLES
  0
TABLE
  2
LTYPE
 70
     9
  0
LTYPE
  2
CONTINUOUS
 70
    64
  3
実線
 72
    65
 73
     0
 40
0.0
  0
LTYPE
  2
DASHED1
 70
    64
  3
--  --  --  --  --  --  --  --  
 72
    65
 73
     2
 40
2.5
 49
1.25
 49
-1.25
  0
LTYPE
  2
DASHED2
 70
    64
  3
----    ----    ----    ----    
 72
    65
 73
     2
 40
5.0
 49
2.5
 49
-2.5
  0
LTYPE
  2
DASHED3
 70
    64
  3
------  ------  ------  ------  
 72
    65
 73
     2
 40
5.0
 49
3.75
 49
-1.25
  0
LTYPE
  2
CENTER1
 70
    64
  3
----- - ----- - ----- - ----- - 
 72
    65
 73
     4
 40
10.0
 49
6.25
 49
-1.25
 49
1.25
 49
-1.25
  0
LTYPE
  2
CENTER2
 70
    64
  3
----------  --  ----------  --  
 72
    65
 73
     4
 40
20.0
 49
12.5
 49
-2.5
 49
2.5
 49
-2.5
  0
LTYPE
  2
PHANTOM1
 70
    64
  3
--- - - --- - - --- - - --- - - 
 72
    65
 73
     6
 40
10.0
 49
3.25
 49
-1.25
 49
1.25
 49
-1.25
 49
1.25
 49
-1.25
  0
LTYPE
  2
PHANTOM2
 70
    64
  3
--------  -  -  --------  -  -  
 72
    65
 73
     6
 40
20.0
 49
10.0
 49
-2.5
 49
1.25
 49
-2.5
 49
1.25
 49
-2.5
  0
LTYPE
  2
DOT
 70
    64
  3
-   -   -   -   -   -   -   -   
 72
    65
 73
     2
 40
2.5
 49
0.625
 49
-1.875
  0
LTYPE
  2
DUMMY
 70
    64
  3
ダミー
 72
    65
 73
     0
 40
0.0
  0
LTYPE
  2
RAND1
 70
    64
  3
ランダム線1
 72
    65
 73
     4
 40
10.0
 49
1.0
 49
-2.0
 49
3.0
 49
-4.0
  0
LTYPE
  2
RAND2
 70
    64
  3
ランダム線2
 72
    65
 73
     4
 40
14.0
 49
2.0
 49
-3.0
 49
4.0
 49
-5.0
  0
LTYPE
  2
RAND3
 70
    64
  3
ランダム線3
 72
    65
 73
     4
 40
18.0
 49
3.0
 49
-4.0
 49
5.0
 49
-6.0
  0
LTYPE
  2
RAND4
 70
    64
  3
ランダム線4
 72
    65
 73
     4
 40
22.0
 49
4.0
 49
-5.0
 49
6.0
 49
-7.0
  0
LTYPE
  2
RAND5
 70
    64
  3
ランダム線5
 72
    65
 73
     4
 40
26.0
 49
5.0
 49
-6.0
 49
7.0
 49
-8.0
  0
LTYPE
  2
LONG1
 70
    64
  3
----------  --  ----------  --  
 72
    65
 73
     4
 40
40.0
 49
32.5
 49
-2.5
 49
2.5
 49
-2.5
  0
LTYPE
  2
LONG2
 70
    64
  3
--------  -  -  --------  -  -  
 72
    65
 73
     6
 40
40.0
 49
30.0
 49
-2.5
 49
1.25
 49
-2.5
 49
1.25
 49
-2.5
  0
LTYPE
  2
LONG3
 70
    64
  3
+++++++++++++++..+++++++++++++++
 72
    65
 73
     2
 40
40.0
 49
37.5
 49
-2.5
  0
LTYPE
  2
LONG4
 70
    64
  3
+++++++++++++++..+++++++++++++++
 72
    65
 73
     2
 40
80.0
 49
75.0
 49
-5.0
  0
LTYPE
  2
LONG5
 70
    64
  3
----------  --  ----------  --  
 72
    65
 73
     4
 40
60.0
 49
37.5
 49
-7.5
 49
7.5
 49
-7.5
  0
LTYPE
  2
dashed
 70
   64
  3
-------   -------------   ------
 72
   65
 73
    2
 40
7.5
 49
6
 49
-1.5
  0
LTYPE
  2
dashed_spaced
 70
   64
  3
----        --------        ----
 72
   65
 73
    2
 40
12
 49
6
 49
-6
  0
LTYPE
  2
long_dashed_dotted
 70
   64
  3
------------- --- --------------
 72
   65
 73
    4
 40
15.25
 49
12
 49
-1.5
 49
0.25
 49
-1.5
  0
LTYPE
  2
long_dashed_double-dotted
 70
   64
  3
----------- --- --- ------------
 72
   65
 73
    6
 40
17
 49
12
 49
-1.5
 49
0.25
 49
-1.5
 49
0.25
 49
-1.5
  0
LTYPE
  2
long_dashed_triplicate-dotted
 70
   64
  3
--------- --- --- --- ----------
 72
   65
 73
    8
 40
18.75
 49
12
 49
-1.5
 49
0.25
 49
-1.5
 49
0.25
 49
-1.5
 49
0.25
 49
-1.5
  0
LTYPE
  2
dotted
 70
   64
  3
   -       -       -       -    
 72
   65
 73
    2
 40
1.75
 49
0.25
 49
-1.5
  0
LTYPE
  2
chain
 70
   64
  3
-------------- -- --------------
 72
   65
 73
    4
 40
18.5
 49
12
 49
-1.5
 49
3.5
 49
-1.5
  0
LTYPE
  2
chain_double_dash
 70
   64
  3
------------ -- -- -------------
 72
   65
 73
    6
 40
23.5
 49
12
 49
-1.5
 49
3.5
 49
-1.5
 49
3.5
 49
-1.5
  0
LTYPE
  2
dashed_dotted
 70
   64
  3
-----------     -     ----------
 72
   65
 73
    4
 40
9.25
 49
6
 49
-1.5
 49
0.25
 49
-1.5
  0
LTYPE
  2
double-dashed_dotted
 70
   64
  3
------   -----------   -   -----
 72
   65
 73
    6
 40
16.75
 49
6
 49
-1.5
 49
6
 49
-1.5
 49
0.25
 49
-1.5
  0
LTYPE
  2
dashed_double-dotted
 70
   64
  3
---------    -    -    ---------
 72
   65
 73
    6
 40
11
 49
6
 49
-1.5
 49
0.25
 49
-1.5
 49
0.25
 49
-1.5
  0
LTYPE
  2
double-dashed_double-dotted
 70
   64
  3
-----   ---------   -   -   ----
 72
   65
 73
    8
 40
18.5
 49
6
 49
-1.5
 49
6
 49
-1.5
 49
0.25
 49
-1.5
 49
0.25
 49
-1.5
  0
LTYPE
  2
dashed_triplicate-dotted
 70
   64
  3
-------    -    -    -    ------
 72
   65
 73
    8
 40
12.75
 49
6
 49
-1.5
 49
0.25
 49
-1.5
 49
0.25
 49
-1.5
 49
0.25
 49
-1.5
  0
LTYPE
  2
double-dashed_triplicate-dotted
 70
   64
  3
-----  ---------  -  -  -  -----
 72
   65
 73
   10
 40
20.25
 49
6
 49
-1.5
 49
6
 49
-1.5
 49
0.25
 49
-1.5
 49
0.25
 49
-1.5
 49
0.25
 49
-1.5
  0
LTYPE
  2
undefined
 70
   64
  3
--------------------------------
 72
   65
 73
    0
 40
0
  0
LTYPE
  2
_
 70
   64
  3
                                
 72
   65
 73
    0
 40
0
  0
LTYPE
  2
__18
 70
   64
  3
                                
 72
   65
 73
    0
 40
0
  0
LTYPE
  2
__19
 70
   64
  3
                                
 72
   65
 73
    0
 40
0
  0
LTYPE
  2
__20
 70
   64
  3
                                
 72
   65
 73
    0
 40
0
  0
LTYPE
  2
__21
 70
   64
  3
                                
 72
   65
 73
    0
 40
0
  0
LTYPE
  2
__22
 70
   64
  3
                                
 72
   65
 73
    0
 40
0
  0
LTYPE
  2
__23
 70
   64
  3
                                
 72
   65
 73
    0
 40
0
  0
LTYPE
  2
__24
 70
   64
  3
                                
 72
   65
 73
    0
 40
0
  0
LTYPE
  2
__25
 70
   64
  3
                                
 72
   65
 73
    0
 40
0
  0
LTYPE
  2
__26
 70
   64
  3
                                
 72
   65
 73
    0
 40
0
  0
LTYPE
  2
__27
 70
   64
  3
                                
 72
   65
 73
    0
 40
0
  0
LTYPE
  2
__28
 70
   64
  3
                                
 72
   65
 73
    0
 40
0
  0
LTYPE
  2
__29
 70
   64
  3
                                
 72
   65
 73
    0
 40
0
  0
LTYPE
  2
__30
 70
   64
  3
                                
 72
   65
 73
    0
 40
0
  0
LTYPE
  2
__31
 70
   64
  3
                                
 72
   65
 73
    0
 40
0
  0
LTYPE
  2
__32
 70
   64
  3
                                
 72
   65
 73
    0
 40
0
  0
ENDTAB
  0
TABLE
  2
STYLE
  5
3
100
AcDbSymbolTable
 70
     1
  0
STYLE
  5
10
100
AcDbSymbolTableRecord
100
AcDbTextStyleTableRecord
  2
STANDARD
 70
     0
 40
0.0
 41
1.0
 50
0.0
 71
     0
 42
0.2
  3
txt
  4
bigfont.shx
  0
STYLE
  5
26
100
AcDbSymbolTableRecord
100
AcDbTextStyleTableRecord
  2
TATEGAKI
 70
    68
 40
0.0
 41
1.0
 50
0.0
 71
     0
 42
1.0
  3
txt
  4
bigfont.shx
  0
ENDTAB
  0
TABLE
  2
LAYER
 70
    3
  0
LAYER
  2
_0-0_9001
 70
   64
 62
    7
  6
CONTINUOUS
  0
LAYER
  2
_0-1_地形
 70
   64
 62
    7
  6
CONTINUOUS
  0
LAYER
  2
ADD_LINE
 70
   64
 62
    7
  6
CONTINUOUS
  0
ENDTAB
  0
ENDSEC
  0
SECTION
  2
BLOCKS
  0
ENDSEC
  0
SECTION
  2
ENTITIES
  0
LINE
  8
_0-1_地形
  6
CONTINUOUS
 62
    7
 10
46.272205402262536
 20
24.905084006189448
 11
45.615066322262535
 21
23.886026486189444
  0
LINE
  8
_0-1_地形
  6
CONTINUOUS
 62
    7
 10
46.242045022262531
 20
25.498667906189475
 11
45.799511902262523
 21
24.833659526189457
  0
LINE
  8
_0-1_地形
  6
CONTINUOUS
 62
    7
 10
3.6766698222625678
 20
13.318695926189443
 11
3.0300857022625678
 21
12.996492206189467
  0
LINE
  8
_0-1_地形
  6
CONTINUOUS
 62
    7
 10
3.3040628022625356
 20
5.641849526189441
 11
3.3173146422626019
 21
5.8434096861894549
  0
LINE
  8
_0-1_地形
  6
CONTINUOUS
 62
    7
 10
3.3173146422626019
 20
5.8434096861894549
 11
3.3798029022625542
 21
6.0705392061894603
  0
LINE
  8
_0-1_地形
  6
CONTINUOUS
 62
    7
 10
3.3798029022625542
 20
6.0705392061894603
 11
3.4618935222625469
 21
6.2344950261894585
  0
LINE
  8
_0-1_地形
  6
CONTINUOUS
 62
    7
 10
3.4633888422625319
 20
6.2374805661894559
 11
3.1770279222625391
 21
6.4264518861894775
  0
LINE
  8
_0-1_地形
  6
CONTINUOUS
 62
    7
 10
3.4739172822625619
 20
25.149737126189457
 11
3.195439942262567
 21
24.940597346189456
  0
LINE
  8
_0-1_地形
  6
CONTINUOUS
 62
    7
 10
3.4712438622625541
 20
24.850838366189457
 11
3.0874994622625422
 21
24.750557066189451
  0
LINE
  8
_0-1_地形
  6
CONTINUOUS
 62
    7
 10
3.2632964622625309
 20
24.991558586189448
 11
3.0896173339254269
 21
24.751110515109065
  0
LINE
  8
_0-1_地形
  6
CONTINUOUS
 62
    7
 10
2.994685582262548
 20
14.021080166189458
 11
3.7925877222625672
 21
14.018775986189477
  0
LINE
  8
_0-1_地形
  6
CONTINUOUS
 62
    7
 10
45.838989982262525
 20
16.469256626189441
 11
46.180069822262524
 21
16.187987546189468
  0
LINE
  8
_0-1_地形
  6
CONTINUOUS
 62
    7
 10
43.150702462262565
 20
16.195568186189469
 11
43.26648572226253
 21
14.647253066189473
  0
LINE
  8
_0-1_地形
  6
CONTINUOUS
 62
    7
 10
43.26648572226253
 20
14.647253066189473
 11
43.362835942262542
 21
13.535532626189459
  0
LINE
  8
_0-1_地形
  6
CONTINUOUS
 62
    7
 10
43.362835942262542
 20
13.535532626189459
 11
43.492485082262569
 21
12.46370132618946
  0
LINE
  8
_0-1_地形
  6
CONTINUOUS
 62
    7
 10
43.492485082262569
 20
12.46370132618946
 11
43.942077622262538
 21
11.087118506189464
  0
LINE
  8
_0-1_地形
  6
CONTINUOUS
 62
    7
 10
43.56834044226256
 20
7.5045429261894672
 11
42.457211602262568
 21
12.73041398618947
  0
LINE
  8
_0-1_地形
  6
CONTINUOUS
 62
    7
 10
42.538787122262534
 20
16.387570946189449
 11
42.641271622262536
 21
14.952250406189458
  0
LINE
  8
_0-1_地形
  6
CONTINUOUS
 62
    7
 10
42.641271622262536
 20
14.952250406189458
 11
42.795771022262556
 21
13.642697906189463
  0
LINE
  8
_0-1_地形
  6
CONTINUOUS
 62
    7
 10
42.795771022262556
 20
13.642697906189463
 11
43.107519742262561
 21
11.653743806189448
  0
LINE
  8
_0-1_地形
  6
CONTINUOUS
 62
    7
 10
40.714812922262539
 20
14.943746666189449
 11
38.474966362262535
 21
15.536270786189442
  0
LINE
  8
_0-1_地形
  6
CONTINUOUS
 62
    7
 10
38.474966362262535
 20
15.536270786189442
 11
35.987883022262565
 21
12.986453366189446
  0
LINE
  8
_0-1_地形
  6
CONTINUOUS
 62
    7
 10
35.987883022262565
 20
12.986453366189446
 11
32.984066662262592
 21
9.9068673261894649
  0
LINE
  8
_0-1_地形
  6
CONTINUOUS
 62
    7
 10
43.56834044226256
 20
7.5045429261894672
 11
40.714812922262539
 21
14.943746666189449
  0
LINE
  8
_0-1_地形
  6
CONTINUOUS
 62
    7
 10
43.56834044226256
 20
7.5045429261894672
 11
40.973912302262534
 21
15.756074666189457
  0
LINE
  8
_0-1_地形
  6
CONTINUOUS
 62
    7
 10
42.609118162262533
 20
15.402561026189469
 11
38.379447442262517
 21
16.316969606189467
  0
LINE
  8
_0-1_地形
  6
CONTINUOUS
 62
    7
 10
38.379447442262517
 20
16.316969606189467
 11
38.247277882262551
 21
16.429205306189452
  0
LINE
  8
_0-1_地形
  6
CONTINUOUS
 62
    7
 10
42.575218462262526
 20
15.877333286189463
 11
42.296408602262524
 21
15.937608146189456
  0
LINE
  8
_0-1_地形
  6
CONTINUOUS
 62
    7
 10
37.635910282262515
 20
16.437902846189466
 11
37.964764402262517
 21
15.720435866189442
  0
LINE
  8
_0-1_地形
  6
CONTINUOUS
 62
    7
 10
37.964764402262517
 20
15.720435866189442
 11
36.033591262262533
 21
13.920957986189473
  0
LINE
  8
_0-1_地形
  6
CONTINUOUS
 62
    7
 10
36.033591262262533
 20
13.920957986189473
 11
32.984066662262592
 21
9.9068673261894649
  0
LINE
  8
_0-1_地形
  6
DASHED2
 62
    7
 10
42.768576802262523
 20
7.420057346189461
 11
40.779822622262543
 21
12.086248286189454
  0
LINE
  8
_0-1_地形
  6
DASHED2
 62
    7
 10
40.779822622262543
 20
12.086248286189454
 11
40.234355182262561
 21
11.75647718618948
  0
LINE
  8
_0-1_地形
  6
DASHED2
 62
    7
 10
40.234355182262561
 20
11.75647718618948
 11
39.472793602262527
 21
11.504254646189446
  0
LINE
  8
_0-1_地形
  6
DASHED2
 62
    7
 10
39.472793602262527
 20
11.504254646189446
 11
38.790938902262532
 21
11.47385864618945
  0
LINE
  8
_0-1_地形
  6
DASHED2
 62
    7
 10
38.790938902262532
 20
11.47385864618945
 11
38.077709002262566
 21
11.617935686189464
  0
LINE
  8
_0-1_地形
  6
DASHED2
 62
    7
 10
38.077709002262566
 20
11.617935686189464
 11
37.333227322262545
 21
11.999908346189466
  0
LINE
  8
_0-1_地形
  6
DASHED2
 62
    7
 10
37.333227322262545
 20
11.999908346189466
 11
36.831157822262526
 21
12.439914926189454
  0
LINE
  8
_0-1_地形
  6
DASHED2
 62
    7
 10
36.831157822262526
 20
12.439914926189454
 11
33.471855142262541
 21
9.8113351461894727
  0
LINE
  8
_0-1_地形
  6
DASHED2
 62
    7
 10
33.471855142262541
 20
9.8113351461894727
 11
30.906075742262544
 21
5.6315679261894562
  0
LINE
  8
_0-1_地形
  6
DASHED2
 62
    7
 10
42.768576802262523
 20
7.420057346189461
 11
37.352423722262586
 21
6.0259274661894668
  0
LINE
  8
_0-1_地形
  6
DASHED2
 62
    7
 10
37.352423722262586
 20
6.0259274661894668
 11
33.471855142262541
 21
9.8113351461894727
  0
LINE
  8
_0-1_地形
  6
CONTINUOUS
 62
    7
 10
32.890569382262541
 20
11.409537446189441
 11
35.108660362262583
 21
14.46183644618946
  0
LINE
  8
_0-1_地形
  6
CONTINUOUS
 62
    7
 10
35.108660362262583
 20
14.46183644618946
 11
35.785294702262547
 21
15.319371866189465
  0
LINE
  8
_0-1_地形
  6
CONTINUOUS
 62
    7
 10
35.785294702262547
 20
15.319371866189465
 11
36.53244674226255
 21
16.07637404618945
  0
LINE
  8
_0-1_地形
  6
DASHED2
 62
    7
 10
36.883837762262544
 20
15.905619926189454
 11
36.245363662262548
 21
15.204863606189457
  0
LINE
  8
_0-1_地形
  6
DASHED2
 62
    7
 10
36.245363662262548
 20
15.204863606189457
 11
35.570647942262511
 21
14.35732826618945
  0
LINE
  8
_0-1_地形
  6
DASHED2
 62
    7
 10
35.570647942262511
 20
14.35732826618945
 11
35.116048222262521
 21
13.700274866189455
  0
LINE
  8
_0-1_地形
  6
DASHED2
 62
    7
 10
35.116048222262521
 20
13.700274866189455
 11
34.475490262262554
 21
12.715604606189453
  0
LINE
  8
_0-1_地形
  6
DASHED2
 62
    7
 10
34.475490262262554
 20
12.715604606189453
 11
34.044714682262565
 21
12.008879246189446
  0
LINE
  8
_0-1_地形
  6
DASHED2
 62
    7
 10
34.044714682262565
 20
12.008879246189446
 11
33.436975222262561
 21
10.912542446189457
  0
LINE
  8
_0-1_地形
  6
DASHED2
 62
    7
 10
33.436975222262561
 20
10.912542446189457
 11
33.188739862262594
 21
10.430474126189475
  0
LINE
  8
_0-1_地形
  6
DASHED2
 62
    7
 10
33.188739862262594
 20
10.430474126189475
 11
32.984066662262592
 21
9.9068673261894649
  0
LINE
  8
_0-1_地形
  6
CONTINUOUS
 62
    7
 10
33.775193962262563
 20
13.639910246189453
 11
34.438669282262538
 21
14.563190786189461
  0
LINE
  8
_0-1_地形
  6
CONTINUOUS
 62
    7
 10
34.438669282262538
 20
14.563190786189461
 11
34.935776482262511
 21
15.254955806189466
  0
LINE
  8
_0-1_地形
  6
CONTINUOUS
 62
    7
 10
34.935776482262511
 20
15.254955806189466
 11
35.357988142262528
 21
15.756233786189464
  0
LINE
  8
_0-1_地形
  6
CONTINUOUS
 62
    7
 10
35.357988142262528
 20
15.756233786189464
 11
35.927027782262542
 21
16.332735746189464
  0
LINE
  8
_0-1_地形
  6
CONTINUOUS
 62
    7
 10
33.573311482262568
 20
13.786859606189461
 11
34.235898382262533
 21
14.708902886189458
  0
LINE
  8
_0-1_地形
  6
CONTINUOUS
 62
    7
 10
34.235898382262533
 20
14.708902886189458
 11
34.738610482262573
 21
15.408467846189462
  0
LINE
  8
_0-1_地形
  6
CONTINUOUS
 62
    7
 10
34.738610482262573
 20
15.408467846189462
 11
35.173356922262542
 21
15.924627626189471
  0
LINE
  8
_0-1_地形
  6
CONTINUOUS
 62
    7
 10
21.937441162262587
 20
5.0601710661894632
 11
22.879408102262534
 21
5.8053545061894543
  0
LINE
  8
_0-1_地形
  6
CONTINUOUS
 62
    7
 10
18.651380602262577
 20
6.7401273861894655
 11
16.709684122262559
 21
4.3225805061894622
  0
LINE
  8
_0-1_地形
  6
CONTINUOUS
 62
    7
 10
38.937253822262562
 20
15.413977886189466
 11
39.062770942262546
 21
15.944665526189477
  0
LINE
  8
_0-1_地形
  6
CONTINUOUS
 62
    7
 10
40.207687282262555
 20
15.077900126189457
 11
40.363047562262523
 21
15.665187566189468
  0
LINE
  8
_0-1_地形
  6
CONTINUOUS
 62
    7
 10
38.629767682262539
 20
16.184971406189455
 11
39.552452542262543
 21
15.985497146189468
  0
LINE
  8
_0-1_地形
  6
CONTINUOUS
 62
    7
 10
38.811573502262547
 20
16.072652066189455
 11
39.350978062262527
 21
15.956038526189454
  0
LINE
  8
_0-1_地形
  6
CONTINUOUS
 62
    7
 10
38.949275542262548
 20
15.969201626189468
 11
39.203836942262569
 21
15.914168546189467
  0
LINE
  8
_0-1_地形
  6
CONTINUOUS
 62
    7
 10
39.987373402262541
 20
15.89309942618946
 11
40.81000136226254
 21
15.715256306189454
  0
LINE
  8
_0-1_地形
  6
CONTINUOUS
 62
    7
 10
40.178514262262524
 20
15.780761726189448
 11
40.62901868226254
 21
15.683368046189452
  0
LINE
  8
_0-1_地形
  6
CONTINUOUS
 62
    7
 10
40.291903582262535
 20
15.680568146189453
 11
40.452476062262534
 21
15.645853466189459
  0
LINE
  8
_0-1_地形
  6
CONTINUOUS
 62
    7
 10
40.842346582262564
 20
14.611263386189444
 11
41.161146562262537
 21
14.632823126189459
  0
LINE
  8
_0-1_地形
  6
CONTINUOUS
 62
    7
 10
41.436073282262512
 20
13.063406246189453
 11
41.646895042262543
 21
13.112793626189452
  0
LINE
  8
_0-1_地形
  6
CONTINUOUS
 62
    7
 10
41.159468662262555
 20
14.988526706189456
 11
41.37497018226253
 21
14.303128526189463
  0
LINE
  8
_0-1_地形
  6
CONTINUOUS
 62
    7
 10
41.154476782262535
 20
14.820582686189463
 11
41.275613002262538
 21
14.435311346189474
  0
LINE
  8
_0-1_地形
  6
CONTINUOUS
 62
    7
 10
41.140241662262532
 20
14.699309786189454
 11
41.190670462262531
 21
14.538921926189454
  0
LINE
  8
_0-1_地形
  6
CONTINUOUS
 62
    7
 10
41.634936562262546
 20
13.461375566189441
 11
41.851736542262564
 21
12.771847406189446
  0
LINE
  8
_0-1_地形
  6
CONTINUOUS
 62
    7
 10
41.622915862262552
 20
13.334855786189459
 11
41.753325922262547
 21
12.920091146189458
  0
LINE
  8
_0-1_地形
  6
CONTINUOUS
 62
    7
 10
41.61824732226254
 20
13.203907166189447
 11
41.681187442262548
 21
13.003728086189463
  0
LINE
  8
_0-1_地形
  6
CONTINUOUS
 62
    7
 10
42.091021402262562
 20
12.06234254618945
 11
42.233480722262541
 21
11.609251406189466
  0
LINE
  8
_0-1_地形
  6
CONTINUOUS
 62
    7
 10
42.085629682262528
 20
11.979717446189477
 11
42.17126174226253
 21
11.707364186189446
  0
LINE
  8
_0-1_地形
  6
CONTINUOUS
 62
    7
 10
42.089613802262534
 20
11.875107266189454
 11
42.129013342262546
 21
11.749799246189463
  0
LINE
  8
_0-1_地形
  6
CONTINUOUS
 62
    7
 10
42.110662522262558
 20
11.808163646189465
 11
41.935352062262552
 21
11.761776086189466
  0
LINE
  8
_0-1_地形
  6
CONTINUOUS
 62
    7
 10
42.244483462262522
 20
15.193221326189454
 11
42.299133022262517
 21
14.116556246189456
  0
LINE
  8
_0-1_地形
  6
CONTINUOUS
 62
    7
 10
42.176860522262544
 20
15.031597226189456
 11
42.213057262262545
 21
14.318463206189444
  0
LINE
  8
_0-1_地形
  6
CONTINUOUS
 62
    7
 10
42.113576662262552
 20
14.929545206189468
 11
42.13053824226256
 21
14.59536566618946
  0
LINE
  8
_0-1_地形
  6
CONTINUOUS
 62
    7
 10
41.345528902262529
 20
14.574152726189448
 11
42.121980442262533
 21
14.763969626189473
  0
LINE
  8
_0-1_地形
  6
CONTINUOUS
 62
    7
 10
41.821201822262537
 20
13.061285666189471
 11
42.210619462262528
 21
13.16127524618947
  0
LINE
  8
_0-1_地形
  6
CONTINUOUS
 62
    7
 10
42.330305242262547
 20
13.602498686189458
 11
42.376125682262526
 21
12.699770126189458
  0
LINE
  8
_0-1_地形
  6
CONTINUOUS
 62
    7
 10
42.264779422262542
 20
13.472127386189465
 11
42.295636462262522
 21
12.864194126189469
  0
LINE
  8
_0-1_地形
  6
CONTINUOUS
 62
    7
 10
42.203825242262532
 20
13.295141066189453
 11
42.219098722262551
 21
12.994233926189461
  0
LINE
  8
_0-1_地形
  6
CONTINUOUS
 62
    7
 10
42.275754622262525
 20
11.615586626189449
 11
42.556918642262531
 21
11.66001680618947
  0
LINE
  8
_0-1_地形
  6
CONTINUOUS
 62
    7
 10
42.583646722262564
 20
11.902483046189454
 11
42.674561362262537
 21
11.47489190618945
  0
LINE
  8
_0-1_地形
  6
CONTINUOUS
 62
    7
 10
42.569443222262557
 20
11.790655346189462
 11
42.622920802262527
 21
11.539136606189453
  0
LINE
  8
_0-1_地形
  6
CONTINUOUS
 62
    7
 10
42.545978122262525
 20
11.711469686189469
 11
42.569874682262537
 21
11.599082006189457
  0
LINE
  8
_0-1_地形
  6
CONTINUOUS
 62
    7
 10
37.889609782262539
 20
14.936148686189464
 11
37.721365882262546
 21
15.188991386189466
  0
LINE
  8
_0-1_地形
  6
CONTINUOUS
 62
    7
 10
37.03987022226255
 20
14.064975866189451
 11
36.787700722262528
 21
14.319005846189464
  0
LINE
  8
_0-1_地形
  6
CONTINUOUS
 62
    7
 10
37.941779722262538
 20
15.589892186189454
 11
37.347677662262527
 21
15.035012186189471
  0
LINE
  8
_0-1_地形
  6
CONTINUOUS
 62
    7
 10
37.877835922262534
 20
15.432650006189457
 11
37.50780032226254
 21
15.087045446189444
  0
LINE
  8
_0-1_地形
  6
CONTINUOUS
 62
    7
 10
37.813891102262531
 20
15.275408846189459
 11
37.639584322262522
 21
15.11260868618947
  0
LINE
  8
_0-1_地形
  6
CONTINUOUS
 62
    7
 10
37.004279362262537
 20
14.716323386189453
 11
36.410176282262526
 21
14.161444406189469
  0
LINE
  8
_0-1_地形
  6
CONTINUOUS
 62
    7
 10
36.940334542262534
 20
14.55908120618947
 11
36.570299962262538
 21
14.213476646189457
  0
LINE
  8
_0-1_地形
  6
CONTINUOUS
 62
    7
 10
36.876390742262572
 20
14.401840046189472
 11
36.702082942262521
 21
14.239040906189439
  0
LINE
  8
_0-1_地形
  6
CONTINUOUS
 62
    7
 10
35.556014002262543
 20
12.543689726189465
 11
35.369766082262529
 21
12.724500026189469
  0
LINE
  8
_0-1_地形
  6
CONTINUOUS
 62
    7
 10
35.004319462262572
 20
12.461486906189458
 11
35.50097378226252
 21
13.11523346618946
  0
LINE
  8
_0-1_地形
  6
CONTINUOUS
 62
    7
 10
35.13412058226254
 20
12.52629566618945
 11
35.467198522262549
 21
12.964725326189461
  0
LINE
  8
_0-1_地形
  6
CONTINUOUS
 62
    7
 10
35.274550102262538
 20
12.59916752618947
 11
35.453723302262517
 21
12.835013966189445
  0
LINE
  8
_0-1_地形
  6
CONTINUOUS
 62
    7
 10
29.477813602262529
 20
6.7132656861894535
 11
30.91764968226255
 21
8.6946146661894463
  0
LINE
  8
_0-1_地形
  6
CONTINUOUS
 62
    7
 10
30.91764968226255
 20
8.6946146661894463
 11
32.890569382262541
 21
11.409537446189441
  0
LINE
  8
_0-1_地形
  6
CONTINUOUS
 62
    7
 10
14.046932302262537
 20
6.7680345861894526
 11
11.761508062262539
 21
5.6276592861894787
  0
LINE
  8
_0-1_地形
  6
CONTINUOUS
 62
    7
 10
29.095671622262518
 20
14.203886606189466
 11
29.365063822262584
 21
14.820767306189461
  0
LINE
  8
_0-1_地形
  6
CONTINUOUS
 62
    7
 10
29.365063822262584
 20
14.820767306189461
 11
29.484537442262535
 21
15.233758166189469
  0
LINE
  8
_0-1_地形
  6
CONTINUOUS
 62
    7
 10
29.484537442262535
 20
15.233758166189469
 11
29.544242122262574
 21
15.815227526189469
  0
LINE
  8
_0-1_地形
  6
CONTINUOUS
 62
    7
 10
29.544242122262574
 20
15.815227526189469
 11
29.575869262262529
 21
16.375024946189463
  0
LINE
  8
_0-1_地形
  6
CONTINUOUS
 62
    7
 10
29.334004822262557
 20
16.106113166189452
 11
29.363496082262543
 21
15.61749338618946
  0
LINE
  8
_0-1_地形
  6
CONTINUOUS
 62
    7
 10
29.363496082262543
 20
15.61749338618946
 11
29.306992162262532
 21
15.193384526189442
  0
LINE
  8
_0-1_地形
  6
CONTINUOUS
 62
    7
 10
9.2101677822625447
 20
6.7435086861894522
 11
9.7964525622625729
 21
6.2588281461894528
  0
LINE
  8
_0-1_地形
  6
CONTINUOUS
 62
    7
 10
9.7964525622625729
 20
6.2588281461894528
 11
10.334383222262545
 21
5.7501062061894519
  0
LINE
  8
_0-1_地形
  6
CONTINUOUS
 62
    7
 10
3.8069993022625681
 20
13.020966086189455
 11
3.1897034622625711
 21
12.713356526189452
  0
LINE
  8
_0-1_地形
  6
CONTINUOUS
 62
    7
 10
9.9619689822625901
 20
6.4459695861894435
 11
10.507729162262535
 21
5.9298434661894621
  0
LINE
  8
_0-1_地形
  6
CONTINUOUS
 62
    7
 10
9.8895857022625364
 20
6.7504232661894523
 11
10.232973802262563
 21
6.3845186661894733
  0
LINE
  8
_0-1_地形
  6
CONTINUOUS
 62
    7
 10
10.232973802262563
 20
6.3845186661894733
 11
10.547830462262556
 21
6.0202756461894698
  0
LINE
  8
_0-1_地形
  6
CONTINUOUS
 62
    7
 10
10.547830462262556
 20
6.0202756461894698
 11
11.004455902262578
 21
5.4412889661894699
  0
LINE
  8
_0-1_地形
  6
CONTINUOUS
 62
    7
 10
22.879408102262534
 20
5.8053545061894543
 11
23.868369502262528
 21
6.295595066189458
  0
LINE
  8
_0-1_地形
  6
CONTINUOUS
 62
    7
 10
23.868369502262528
 20
6.295595066189458
 11
24.982265602262544
 21
6.7734314061894541
  0
LINE
  8
_0-1_地形
  6
CONTINUOUS
 62
    7
 10
9.1141868022625268
 20
5.9308522461894686
 11
8.5294748622625889
 21
6.3653559261894745
  0
LINE
  8
_0-1_地形
  6
CONTINUOUS
 62
    7
 10
8.5294748622625889
 20
6.3653559261894745
 11
7.9806495822625338
 21
6.7105769661894588
  0
LINE
  8
_0-1_地形
  6
CONTINUOUS
 62
    7
 10
3.8701342422625657
 20
7.8991329861894659
 11
3.1524867222625517
 21
7.8973806261894541
  0
LINE
  8
_0-1_地形
  6
CONTINUOUS
 62
    7
 10
8.2292388822625639
 20
6.2505386061894459
 11
8.0832381222625713
 21
5.7615995661894406
  0
LINE
  8
_0-1_地形
  6
CONTINUOUS
 62
    7
 10
9.3130123422625388
 20
5.4087071061894623
 11
8.8281318822625572
 21
5.8205820861894555
  0
LINE
  8
_0-1_地形
  6
CONTINUOUS
 62
    7
 10
8.8281318822625572
 20
5.8205820861894555
 11
8.4157734222625322
 21
6.1250388261894475
  0
LINE
  8
_0-1_地形
  6
CONTINUOUS
 62
    7
 10
8.4157734222625322
 20
6.1250388261894475
 11
7.9335317022625418
 21
6.4351943061894676
  0
LINE
  8
_0-1_地形
  6
CONTINUOUS
 62
    7
 10
7.9335317022625418
 20
6.4351943061894676
 11
7.3287145422625217
 21
6.7630131261894721
  0
LINE
  8
_0-1_地形
  6
CONTINUOUS
 62
    7
 10
8.0697343422625636
 20
6.2981685261894516
 11
7.9158041022625412
 21
5.7826717461894734
  0
LINE
  8
_0-1_地形
  6
CONTINUOUS
 62
    7
 10
3.4618935222625469
 20
6.2344950261894585
 11
4.3034486022625629
 21
7.517629526189447
  0
LINE
  8
_0-1_地形
  6
CONTINUOUS
 62
    7
 10
3.8551902222625358
 20
7.6233372261894718
 11
2.9794794222625187
 21
6.2881245861894772
  0
LINE
  8
_0-1_地形
  6
CONTINUOUS
 62
    7
 10
31.526673322262543
 20
9.5326884861894516
 11
32.097020602262546
 21
9.1389521661894637
  0
LINE
  8
_0-1_地形
  6
CONTINUOUS
 62
    7
 10
32.605610962262574
 20
9.570969086189459
 11
31.890095242262532
 21
8.6515257861894614
  0
LINE
  8
_0-1_地形
  6
CONTINUOUS
 62
    7
 10
31.928323822262541
 20
8.8191434061894771
 11
32.421204142262539
 21
9.4524981261894769
  0
LINE
  8
_0-1_地形
  6
CONTINUOUS
 62
    7
 10
32.003802802262555
 20
9.0191654061894386
 11
32.194351042262554
 21
9.2640215061894597
  0
LINE
  8
_0-1_地形
  6
CONTINUOUS
 62
    7
 10
31.146692722262571
 20
7.6575133461894556
 11
30.44600372226256
 21
6.7571216061894663
  0
LINE
  8
_0-1_地形
  6
CONTINUOUS
 62
    7
 10
30.512039542262528
 20
6.9481410861894748
 11
30.950244802262546
 21
7.5112382061894696
  0
LINE
  8
_0-1_地形
  6
CONTINUOUS
 62
    7
 10
30.575505982262541
 20
7.1405334861894634
 11
30.737353462262547
 21
7.3485084261894631
  0
LINE
  8
_0-1_地形
  6
CONTINUOUS
 62
    7
 10
30.14103596226251
 20
7.6259219061894701
 11
30.653093302262562
 21
7.2402344061894528
  0
LINE
  8
_0-1_地形
  6
CONTINUOUS
 62
    7
 10
23.334054742262538
 20
16.246287686189454
 11
22.862202742262525
 21
14.723292026189464
  0
LINE
  8
_0-1_地形
  6
CONTINUOUS
 62
    7
 10
22.862202742262525
 20
14.723292026189464
 11
21.970226002262564
 21
13.22153684618946
  0
LINE
  8
_0-1_地形
  6
CONTINUOUS
 62
    7
 10
21.970226002262564
 20
13.22153684618946
 11
20.700113842262528
 21
11.762441126189467
  0
LINE
  8
_0-1_地形
  6
CONTINUOUS
 62
    7
 10
20.700113842262528
 20
11.762441126189467
 11
19.604115682262545
 21
10.749788186189472
  0
LINE
  8
_0-1_地形
  6
CONTINUOUS
 62
    7
 10
19.604115682262545
 20
10.749788186189472
 11
18.064685782262547
 21
9.4853696661894507
  0
LINE
  8
_0-1_地形
  6
CONTINUOUS
 62
    7
 10
18.064685782262547
 20
9.4853696661894507
 11
16.221586582262546
 21
8.0227855461894766
  0
LINE
  8
_0-1_地形
  6
CONTINUOUS
 62
    7
 10
16.221586582262546
 20
8.0227855461894766
 11
14.046932302262537
 21
6.7680345861894526
  0
LINE
  8
_0-1_地形
  6
CONTINUOUS
 62
    7
 10
28.229414182262531
 20
10.638018626189472
 11
28.161253702262531
 21
10.655935946189453
  0
LINE
  8
_0-1_地形
  6
CONTINUOUS
 62
    7
 10
28.161253702262531
 20
10.655935946189453
 11
28.099727302262522
 21
10.706775806189464
  0
LINE
  8
_0-1_地形
  6
CONTINUOUS
 62
    7
 10
28.099727302262522
 20
10.706775806189464
 11
28.064820862262536
 21
10.796893826189455
  0
LINE
  8
_0-1_地形
  6
CONTINUOUS
 62
    7
 10
28.064820862262536
 20
10.796893826189455
 11
27.986678662262534
 21
11.082102146189451
  0
LINE
  8
_0-1_地形
  6
CONTINUOUS
 62
    7
 10
27.986678662262534
 20
11.082102146189451
 11
27.962785162262549
 21
11.47349246618945
  0
LINE
  8
_0-1_地形
  6
CONTINUOUS
 62
    7
 10
27.962785162262549
 20
11.47349246618945
 11
28.011033202262524
 21
11.835297686189458
  0
LINE
  8
_0-1_地形
  6
CONTINUOUS
 62
    7
 10
28.011033202262524
 20
11.835297686189458
 11
28.105920742262544
 21
12.135335786189453
  0
LINE
  8
_0-1_地形
  6
CONTINUOUS
 62
    7
 10
28.105920742262544
 20
12.135335786189453
 11
28.294160722262575
 21
12.535532786189473
  0
LINE
  8
_0-1_地形
  6
CONTINUOUS
 62
    7
 10
28.294160722262575
 20
12.535532786189473
 11
28.765199782262545
 21
13.516005746189458
  0
LINE
  8
_0-1_地形
  6
CONTINUOUS
 62
    7
 10
28.765199782262545
 20
13.516005746189458
 11
29.095671622262518
 21
14.203886606189466
  0
LINE
  8
_0-1_地形
  6
CONTINUOUS
 62
    7
 10
29.306992162262532
 20
15.193384526189442
 11
29.134673362262522
 21
14.695338926189473
  0
LINE
  8
_0-1_地形
  6
CONTINUOUS
 62
    7
 10
29.134673362262522
 20
14.695338926189473
 11
28.847844262262527
 21
14.075816426189457
  0
LINE
  8
_0-1_地形
  6
CONTINUOUS
 62
    7
 10
28.847844262262527
 20
14.075816426189457
 11
28.50144818226255
 21
13.327637246189449
  0
LINE
  8
_0-1_地形
  6
CONTINUOUS
 62
    7
 10
28.50144818226255
 20
13.327637246189449
 11
28.148615902262538
 21
12.565555466189446
  0
LINE
  8
_0-1_地形
  6
CONTINUOUS
 62
    7
 10
28.148615902262538
 20
12.565555466189446
 11
27.946523302262523
 21
12.117383786189459
  0
LINE
  8
_0-1_地形
  6
CONTINUOUS
 62
    7
 10
27.946523302262523
 20
12.117383786189459
 11
27.822772822262511
 21
11.596098506189458
  0
LINE
  8
_0-1_地形
  6
CONTINUOUS
 62
    7
 10
27.822772822262511
 20
11.596098506189458
 11
27.82749848226257
 21
11.137328006189472
  0
LINE
  8
_0-1_地形
  6
CONTINUOUS
 62
    7
 10
27.82749848226257
 20
11.137328006189472
 11
27.87301904226257
 21
10.804522406189472
  0
LINE
  8
_0-1_地形
  6
CONTINUOUS
 62
    7
 10
27.87301904226257
 20
10.804522406189472
 11
27.828040102262548
 21
10.620012566189468
  0
LINE
  8
_0-1_地形
  6
CONTINUOUS
 62
    7
 10
27.828040102262548
 20
10.620012566189468
 11
27.700781842262529
 21
10.447722326189458
  0
LINE
  8
_0-1_地形
  6
CONTINUOUS
 62
    7
 10
27.700781842262529
 20
10.447722326189458
 11
27.499472602262529
 21
10.338168206189474
  0
LINE
  8
_0-1_地形
  6
DASHED2
 62
    7
 10
26.179431442262569
 20
16.476879086189449
 11
25.368839482262558
 21
16.364730086189446
  0
LINE
  8
_0-1_地形
  6
DASHED2
 62
    7
 10
25.368839482262558
 20
16.364730086189446
 11
24.672714982262562
 21
16.257805526189451
  0
LINE
  8
_0-1_地形
  6
DASHED2
 62
    7
 10
24.672714982262562
 20
16.257805526189451
 11
24.149324422262527
 21
16.179535826189472
  0
LINE
  8
_0-1_地形
  6
DASHED2
 62
    7
 10
24.149324422262527
 20
16.179535826189472
 11
23.673349582262517
 21
16.021896866189472
  0
LINE
  8
_0-1_地形
  6
DASHED2
 62
    7
 10
23.673349582262517
 20
16.021896866189472
 11
23.222926762262546
 21
15.887601626189459
  0
LINE
  8
_0-1_地形
  6
DASHED2
 62
    7
 10
26.19504254226257
 20
16.350003326189473
 11
25.620874342262539
 21
16.270906406189461
  0
LINE
  8
_0-1_地形
  6
DASHED2
 62
    7
 10
25.620874342262539
 20
16.270906406189461
 11
25.164148942262557
 21
16.209290246189461
  0
LINE
  8
_0-1_地形
  6
DASHED2
 62
    7
 10
25.164148942262557
 20
16.209290246189461
 11
24.19664732226255
 21
16.052598866189463
  0
LINE
  8
_0-1_地形
  6
DASHED2
 62
    7
 10
24.19664732226255
 20
16.052598866189463
 11
23.165073382262523
 21
15.700866146189449
  0
LINE
  8
_0-1_地形
  6
CONTINUOUS
 62
    7
 10
3.6410738622625445
 20
8.6334748461894666
 11
4.2815349222625514
 21
8.6084114061894699
  0
LINE
  8
_0-1_地形
  6
CONTINUOUS
 62
    7
 10
4.2815349222625514
 20
8.6084114061894699
 11
5.0858069622625521
 21
8.5135973061894479
  0
LINE
  8
_0-1_地形
  6
CONTINUOUS
 62
    7
 10
5.0858069622625521
 20
8.5135973061894479
 11
5.842025782262529
 21
8.3582145861894563
  0
LINE
  8
_0-1_地形
  6
CONTINUOUS
 62
    7
 10
5.842025782262529
 20
8.3582145861894563
 11
6.7451052222625663
 21
8.0836091661894702
  0
LINE
  8
_0-1_地形
  6
CONTINUOUS
 62
    7
 10
6.7451052222625663
 20
8.0836091661894702
 11
7.6546851222625492
 21
7.6997413461894642
  0
LINE
  8
_0-1_地形
  6
CONTINUOUS
 62
    7
 10
7.6546851222625492
 20
7.6997413461894642
 11
8.483667682262535
 21
7.2429312861894548
  0
LINE
  8
_0-1_地形
  6
CONTINUOUS
 62
    7
 10
8.483667682262535
 20
7.2429312861894548
 11
9.2101677822625447
 21
6.7435086861894522
  0
LINE
  8
_0-1_地形
  6
CONTINUOUS
 62
    7
 10
3.6404873622625473
 20
8.8833850461894546
 11
4.1175454422625535
 21
8.8647159861894469
  0
LINE
  8
_0-1_地形
  6
CONTINUOUS
 62
    7
 10
7.0082795022625151
 20
15.657644666189464
 11
6.8758172022625672
 21
14.868270746189447
  0
LINE
  8
_0-1_地形
  6
CONTINUOUS
 62
    7
 10
6.8758172022625672
 20
14.868270746189447
 11
6.814892602262546
 21
14.040733526189465
  0
LINE
  8
_0-1_地形
  6
CONTINUOUS
 62
    7
 10
6.814892602262546
 20
14.040733526189465
 11
6.8356802022625516
 21
13.845134246189454
  0
LINE
  8
_0-1_地形
  6
CONTINUOUS
 62
    7
 10
6.8356802022625516
 20
13.845134246189454
 11
6.9288255822625615
 21
13.65089972618946
  0
LINE
  8
_0-1_地形
  6
CONTINUOUS
 62
    7
 10
6.9288255822625615
 20
13.65089972618946
 11
7.0203185622625597
 21
13.550279786189458
  0
LINE
  8
_0-1_地形
  6
CONTINUOUS
 62
    7
 10
7.0203185622625597
 20
13.550279786189458
 11
7.1782380222625379
 21
13.449995426189455
  0
LINE
  8
_0-1_地形
  6
CONTINUOUS
 62
    7
 10
7.1782380222625379
 20
13.449995426189455
 11
7.3796258022625425
 21
13.82381216618945
  0
LINE
  8
_0-1_地形
  6
CONTINUOUS
 62
    7
 10
7.3796258022625425
 20
13.82381216618945
 11
7.6174031022625854
 21
14.150176466189459
  0
LINE
  8
_0-1_地形
  6
CONTINUOUS
 62
    7
 10
7.6174031022625854
 20
14.150176466189459
 11
8.2592564622625559
 21
14.814878846189453
  0
LINE
  8
_0-1_地形
  6
CONTINUOUS
 62
    7
 10
8.2592564622625559
 20
14.814878846189453
 11
9.0301163622625609
 21
15.486653906189455
  0
LINE
  8
_0-1_地形
  6
CONTINUOUS
 62
    7
 10
9.0301163622625609
 20
15.486653906189455
 11
9.7591460622625732
 21
16.040019206189463
  0
LINE
  8
_0-1_地形
  6
CONTINUOUS
 62
    7
 10
3.9858267222625345
 20
8.6199833061894626
 11
4.3714999422625738
 21
9.3365618661894647
  0
LINE
  8
_0-1_地形
  6
CONTINUOUS
 62
    7
 10
4.3714999422625738
 20
9.3365618661894647
 11
4.7389059822625654
 21
9.957592946189445
  0
LINE
  8
_0-1_地形
  6
CONTINUOUS
 62
    7
 10
4.7389059822625654
 20
9.957592946189445
 11
5.1560961822625204
 21
10.603240706189462
  0
LINE
  8
_0-1_地形
  6
CONTINUOUS
 62
    7
 10
5.1560961822625204
 20
10.603240706189462
 11
6.5456126022625654
 21
12.534959546189464
  0
LINE
  8
_0-1_地形
  6
CONTINUOUS
 62
    7
 10
6.5456126022625654
 20
12.534959546189464
 11
6.6682370022625337
 21
12.743371046189447
  0
LINE
  8
_0-1_地形
  6
CONTINUOUS
 62
    7
 10
6.6682370022625337
 20
12.743371046189447
 11
6.7352867022625178
 21
12.96488750618945
  0
LINE
  8
_0-1_地形
  6
CONTINUOUS
 62
    7
 10
6.7352867022625178
 20
12.96488750618945
 11
6.7505693622625245
 21
13.169102726189445
  0
LINE
  8
_0-1_地形
  6
CONTINUOUS
 62
    7
 10
6.7505693622625245
 20
13.169102726189445
 11
6.7112463222625438
 21
13.419601466189457
  0
LINE
  8
_0-1_地形
  6
CONTINUOUS
 62
    7
 10
6.7112463222625438
 20
13.419601466189457
 11
6.6143463222625387
 21
13.644727706189466
  0
LINE
  8
_0-1_地形
  6
CONTINUOUS
 62
    7
 10
6.6143463222625387
 20
13.644727706189466
 11
6.5335694622625624
 21
13.75850666618947
  0
LINE
  8
_0-1_地形
  6
CONTINUOUS
 62
    7
 10
6.5335694622625624
 20
13.75850666618947
 11
6.4454098422625634
 21
13.799656526189446
  0
LINE
  8
_0-1_地形
  6
CONTINUOUS
 62
    7
 10
6.4454098422625634
 20
13.799656526189446
 11
6.2911542222625485
 21
13.781709626189448
  0
LINE
  8
_0-1_地形
  6
CONTINUOUS
 62
    7
 10
6.2911542222625485
 20
13.781709626189448
 11
4.958519122262544
 21
13.391057786189444
  0
LINE
  8
_0-1_地形
  6
CONTINUOUS
 62
    7
 10
4.958519122262544
 20
13.391057786189444
 11
4.3289751222625341
 21
13.219186766189461
  0
LINE
  8
_0-1_地形
  6
CONTINUOUS
 62
    7
 10
4.3289751222625341
 20
13.219186766189461
 11
3.8069993022625681
 21
13.020966086189455
  0
LINE
  8
_0-1_地形
  6
CONTINUOUS
 62
    7
 10
6.6885992622625281
 20
15.714037406189457
 11
6.5531942622625365
 21
14.907130706189472
  0
LINE
  8
_0-1_地形
  6
CONTINUOUS
 62
    7
 10
6.5531942622625365
 20
14.907130706189472
 11
6.4717227822625887
 21
14.511657326189473
  0
LINE
  8
_0-1_地形
  6
CONTINUOUS
 62
    7
 10
6.4717227822625887
 20
14.511657326189473
 11
6.3563709822625469
 21
14.300335766189471
  0
LINE
  8
_0-1_地形
  6
CONTINUOUS
 62
    7
 10
6.3563709822625469
 20
14.300335766189471
 11
6.1140200022625395
 21
14.113436066189474
  0
LINE
  8
_0-1_地形
  6
CONTINUOUS
 62
    7
 10
6.1140200022625395
 20
14.113436066189474
 11
5.7849119022625359
 21
13.971573446189476
  0
LINE
  8
_0-1_地形
  6
CONTINUOUS
 62
    7
 10
5.7849119022625359
 20
13.971573446189476
 11
4.8701096022625352
 21
13.703406266189456
  0
LINE
  8
_0-1_地形
  6
CONTINUOUS
 62
    7
 10
4.8701096022625352
 20
13.703406266189456
 11
4.2283766022625855
 21
13.528206986189469
  0
LINE
  8
_0-1_地形
  6
CONTINUOUS
 62
    7
 10
4.2283766022625855
 20
13.528206986189469
 11
3.6766698222625678
 21
13.318695926189443
  0
LINE
  8
_0-1_地形
  6
CONTINUOUS
 62
    7
 10
4.6711953222625766
 20
8.813900606189458
 11
5.1256236822625469
 21
8.7603281661894474
  0
LINE
  8
_0-1_地形
  6
CONTINUOUS
 62
    7
 10
5.1256236822625469
 20
8.7603281661894474
 11
5.9036062422625832
 21
8.6004737661894755
  0
LINE
  8
_0-1_地形
  6
CONTINUOUS
 62
    7
 10
5.9036062422625832
 20
8.6004737661894755
 11
6.8302007622625638
 21
8.3187181461894486
  0
LINE
  8
_0-1_地形
  6
CONTINUOUS
 62
    7
 10
6.8302007622625638
 20
8.3187181461894486
 11
7.7637792222625421
 21
7.9247227461894543
  0
LINE
  8
_0-1_地形
  6
CONTINUOUS
 62
    7
 10
7.7637792222625421
 20
7.9247227461894543
 11
8.6149671822625464
 21
7.4556757461894652
  0
LINE
  8
_0-1_地形
  6
CONTINUOUS
 62
    7
 10
8.6149671822625464
 20
7.4556757461894652
 11
9.3607371222625488
 21
6.9430074261894479
  0
LINE
  8
_0-1_地形
  6
CONTINUOUS
 62
    7
 10
9.3607371222625488
 20
6.9430074261894479
 11
9.9619689822625901
 21
6.4459695861894435
  0
LINE
  8
_0-1_地形
  6
CONTINUOUS
 62
    7
 10
6.7467912822625635
 20
11.614938926189462
 11
5.9805601422625232
 21
10.585794626189477
  0
LINE
  8
_0-1_地形
  6
CONTINUOUS
 62
    7
 10
5.9805601422625232
 20
10.585794626189477
 11
5.9166581622625545
 21
10.454648126189463
  0
LINE
  8
_0-1_地形
  6
CONTINUOUS
 62
    7
 10
5.9166581622625545
 20
10.454648126189463
 11
5.9031839622625357
 21
10.305679166189458
  0
LINE
  8
_0-1_地形
  6
CONTINUOUS
 62
    7
 10
5.9031839622625357
 20
10.305679166189458
 11
5.9472326622625928
 21
10.155804446189473
  0
LINE
  8
_0-1_地形
  6
CONTINUOUS
 62
    7
 10
5.9472326622625928
 20
10.155804446189473
 11
6.0126309822625785
 21
10.063553606189439
  0
LINE
  8
_0-1_地形
  6
CONTINUOUS
 62
    7
 10
6.0126309822625785
 20
10.063553606189439
 11
6.1544895222625655
 21
9.9658284261894696
  0
LINE
  8
_0-1_地形
  6
CONTINUOUS
 62
    7
 10
6.1544895222625655
 20
9.9658284261894696
 11
6.299590642262558
 21
9.9350948061894631
  0
LINE
  8
_0-1_地形
  6
CONTINUOUS
 62
    7
 10
6.299590642262558
 20
9.9350948061894631
 11
6.9802805022625876
 21
9.9302916261894669
  0
LINE
  8
_0-1_地形
  6
CONTINUOUS
 62
    7
 10
6.9802805022625876
 20
9.9302916261894669
 11
7.1129784222625476
 21
10.236147806189473
  0
LINE
  8
_0-1_地形
  6
CONTINUOUS
 62
    7
 10
7.1129784222625476
 20
10.236147806189473
 11
7.1913246222625844
 21
10.557960866189442
  0
LINE
  8
_0-1_地形
  6
CONTINUOUS
 62
    7
 10
7.1913246222625844
 20
10.557960866189442
 11
7.2143276622625381
 21
10.867739966189456
  0
LINE
  8
_0-1_地形
  6
CONTINUOUS
 62
    7
 10
7.2143276622625381
 20
10.867739966189456
 11
7.183612402262554
 21
11.201848106189468
  0
LINE
  8
_0-1_地形
  6
CONTINUOUS
 62
    7
 10
7.183612402262554
 20
11.201848106189468
 11
7.0809657222625519
 21
11.371232366189441
  0
LINE
  8
_0-1_地形
  6
CONTINUOUS
 62
    7
 10
7.0809657222625519
 20
11.371232366189441
 11
6.9249903822625924
 21
11.519515886189476
  0
LINE
  8
_0-1_地形
  6
CONTINUOUS
 62
    7
 10
6.9249903822625924
 20
11.519515886189476
 11
6.7467912822625635
 21
11.614938926189462
  0
LINE
  8
_0-1_地形
  6
CONTINUOUS
 62
    7
 10
4.5046017822625686
 20
8.5821147861894733
 11
4.7401208022625383
 21
8.9097969261894665
  0
LINE
  8
_0-1_地形
  6
CONTINUOUS
 62
    7
 10
4.7401208022625383
 20
8.9097969261894665
 11
5.0758364622625622
 21
9.2292588861894647
  0
LINE
  8
_0-1_地形
  6
CONTINUOUS
 62
    7
 10
5.0758364622625622
 20
9.2292588861894647
 11
5.410725922262543
 21
9.4452816261894643
  0
LINE
  8
_0-1_地形
  6
CONTINUOUS
 62
    7
 10
5.410725922262543
 20
9.4452816261894643
 11
5.8258139022625528
 21
9.5316909261894498
  0
LINE
  8
_0-1_地形
  6
CONTINUOUS
 62
    7
 10
5.8258139022625528
 20
9.5316909261894498
 11
6.2625197622625706
 21
9.544333826189467
  0
LINE
  8
_0-1_地形
  6
CONTINUOUS
 62
    7
 10
6.2625197622625706
 20
9.544333826189467
 11
6.6463998222625378
 21
9.4902748461894735
  0
LINE
  8
_0-1_地形
  6
CONTINUOUS
 62
    7
 10
6.6463998222625378
 20
9.4902748461894735
 11
7.0556870622625256
 21
9.3604278261894596
  0
LINE
  8
_0-1_地形
  6
CONTINUOUS
 62
    7
 10
7.0556870622625256
 20
9.3604278261894596
 11
7.4238693222625329
 21
9.1686810861894603
  0
LINE
  8
_0-1_地形
  6
CONTINUOUS
 62
    7
 10
7.4238693222625329
 20
9.1686810861894603
 11
7.597320322262533
 21
9.0517513461894428
  0
LINE
  8
_0-1_地形
  6
CONTINUOUS
 62
    7
 10
7.597320322262533
 20
9.0517513461894428
 11
7.7162584422625287
 21
8.8956709461894494
  0
LINE
  8
_0-1_地形
  6
CONTINUOUS
 62
    7
 10
7.7162584422625287
 20
8.8956709461894494
 11
7.7806428822625548
 21
8.7112773861894457
  0
LINE
  8
_0-1_地形
  6
CONTINUOUS
 62
    7
 10
7.7806428822625548
 20
8.7112773861894457
 11
7.7873320422625625
 21
8.5369216461894641
  0
LINE
  8
_0-1_地形
  6
CONTINUOUS
 62
    7
 10
7.7873320422625625
 20
8.5369216461894641
 11
7.7759019222625625
 21
8.349763886189459
  0
LINE
  8
_0-1_地形
  6
CONTINUOUS
 62
    7
 10
7.7759019222625625
 20
8.349763886189459
 11
7.8146670222625403
 21
8.1930847461894647
  0
LINE
  8
_0-1_地形
  6
CONTINUOUS
 62
    7
 10
7.8146670222625403
 20
8.1930847461894647
 11
7.9000757022625407
 21
8.0472614661894486
  0
LINE
  8
_0-1_地形
  6
CONTINUOUS
 62
    7
 10
7.9000757022625407
 20
8.0472614661894486
 11
8.0088434022625847
 21
7.9432235061894492
  0
LINE
  8
_0-1_地形
  6
CONTINUOUS
 62
    7
 10
8.0088434022625847
 20
7.9432235061894492
 11
8.1507223422625543
 21
7.8671090661894656
  0
LINE
  8
_0-1_地形
  6
CONTINUOUS
 62
    7
 10
8.1507223422625543
 20
7.8671090661894656
 11
8.5417067022625588
 21
7.7710138461894704
  0
LINE
  8
_0-1_地形
  6
CONTINUOUS
 62
    7
 10
8.5417067022625588
 20
7.7710138461894704
 11
8.8630209822625439
 21
7.630681226189461
  0
LINE
  8
_0-1_地形
  6
CONTINUOUS
 62
    7
 10
8.8630209822625439
 20
7.630681226189461
 11
9.1878695622625237
 21
7.4181866661894649
  0
LINE
  8
_0-1_地形
  6
CONTINUOUS
 62
    7
 10
9.1878695622625237
 20
7.4181866661894649
 11
9.534083062262539
 21
7.0990174461894444
  0
LINE
  8
_0-1_地形
  6
CONTINUOUS
 62
    7
 10
9.534083062262539
 20
7.0990174461894444
 11
9.8895857022625364
 21
6.7504232661894523
  0
LINE
  8
_0-1_地形
  6
CONTINUOUS
 62
    7
 10
11.148606382262528
 20
16.195081646189443
 11
10.226919082262555
 21
15.619726166189475
  0
LINE
  8
_0-1_地形
  6
CONTINUOUS
 62
    7
 10
10.226919082262555
 20
15.619726166189475
 11
9.7347446022625554
 21
15.284533766189464
  0
LINE
  8
_0-1_地形
  6
CONTINUOUS
 62
    7
 10
9.7347446022625554
 20
15.284533766189464
 11
9.085906282262556
 21
14.704596446189464
  0
LINE
  8
_0-1_地形
  6
CONTINUOUS
 62
    7
 10
9.085906282262556
 20
14.704596446189464
 11
8.4543681822625558
 21
14.037571526189447
  0
LINE
  8
_0-1_地形
  6
CONTINUOUS
 62
    7
 10
8.4543681822625558
 20
14.037571526189447
 11
7.9839095022625388
 21
13.451817146189464
  0
LINE
  8
_0-1_地形
  6
CONTINUOUS
 62
    7
 10
7.9839095022625388
 20
13.451817146189464
 11
7.7872892022625706
 21
13.046243726189468
  0
LINE
  8
_0-1_地形
  6
CONTINUOUS
 62
    7
 10
7.7872892022625706
 20
13.046243726189468
 11
7.6519709022625761
 21
12.342556946189456
  0
LINE
  8
_0-1_地形
  6
CONTINUOUS
 62
    7
 10
7.6519709022625761
 20
12.342556946189456
 11
7.5936564822625883
 21
11.773868186189455
  0
LINE
  8
_0-1_地形
  6
CONTINUOUS
 62
    7
 10
7.5936564822625883
 20
11.773868186189455
 11
7.6133904222625688
 21
11.006859806189448
  0
LINE
  8
_0-1_地形
  6
CONTINUOUS
 62
    7
 10
7.6133904222625688
 20
11.006859806189448
 11
7.7116317222625526
 21
10.392187406189459
  0
LINE
  8
_0-1_地形
  6
CONTINUOUS
 62
    7
 10
7.7116317222625526
 20
10.392187406189459
 11
7.9353687222625808
 21
9.766275626189449
  0
LINE
  8
_0-1_地形
  6
CONTINUOUS
 62
    7
 10
7.9353687222625808
 20
9.766275626189449
 11
8.14496648226255
 21
9.3513212661894531
  0
LINE
  8
_0-1_地形
  6
CONTINUOUS
 62
    7
 10
8.14496648226255
 20
9.3513212661894531
 11
8.5379520822625636
 21
8.7479321061894613
  0
LINE
  8
_0-1_地形
  6
CONTINUOUS
 62
    7
 10
8.5379520822625636
 20
8.7479321061894613
 11
8.9975375622625506
 21
8.1825665061894544
  0
LINE
  8
_0-1_地形
  6
CONTINUOUS
 62
    7
 10
8.9975375622625506
 20
8.1825665061894544
 11
9.4707543222625645
 21
7.7443367661894431
  0
LINE
  8
_0-1_地形
  6
CONTINUOUS
 62
    7
 10
9.4707543222625645
 20
7.7443367661894431
 11
10.004173522262533
 21
7.3686044661894616
  0
LINE
  8
_0-1_地形
  6
CONTINUOUS
 62
    7
 10
10.004173522262533
 20
7.3686044661894616
 11
10.741172482262584
 21
6.984888626189468
  0
LINE
  8
_0-1_地形
  6
CONTINUOUS
 62
    7
 10
10.741172482262584
 20
6.984888626189468
 11
11.419306222262549
 21
6.7661343261894675
  0
LINE
  8
_0-1_地形
  6
CONTINUOUS
 62
    7
 10
11.419306222262549
 20
6.7661343261894675
 11
12.110501062262585
 21
6.6374684661894552
  0
LINE
  8
_0-1_地形
  6
CONTINUOUS
 62
    7
 10
12.110501062262585
 20
6.6374684661894552
 11
12.651480502262586
 21
6.6914478861894597
  0
LINE
  8
_0-1_地形
  6
CONTINUOUS
 62
    7
 10
12.651480502262586
 20
6.6914478861894597
 11
13.422578062262534
 21
6.9949193061894395
  0
LINE
  8
_0-1_地形
  6
CONTINUOUS
 62
    7
 10
13.422578062262534
 20
6.9949193061894395
 11
13.971124882262586
 21
7.2517808061894673
  0
LINE
  8
_0-1_地形
  6
CONTINUOUS
 62
    7
 10
13.971124882262586
 20
7.2517808061894673
 11
14.746410562262554
 21
7.6787589261894542
  0
LINE
  8
_0-1_地形
  6
CONTINUOUS
 62
    7
 10
14.746410562262554
 20
7.6787589261894542
 11
15.412166602262573
 21
8.1122548461894386
  0
LINE
  8
_0-1_地形
  6
CONTINUOUS
 62
    7
 10
15.412166602262573
 20
8.1122548461894386
 11
16.444183222262552
 21
8.8641896661894695
  0
LINE
  8
_0-1_地形
  6
CONTINUOUS
 62
    7
 10
16.444183222262552
 20
8.8641896661894695
 11
18.509713822262558
 21
10.564802006189447
  0
LINE
  8
_0-1_地形
  6
CONTINUOUS
 62
    7
 10
18.509713822262558
 20
10.564802006189447
 11
19.395261502262542
 21
11.296800926189457
  0
LINE
  8
_0-1_地形
  6
CONTINUOUS
 62
    7
 10
19.395261502262542
 20
11.296800926189457
 11
20.035007542262576
 21
11.89208414618947
  0
LINE
  8
_0-1_地形
  6
CONTINUOUS
 62
    7
 10
20.035007542262576
 20
11.89208414618947
 11
20.68098476226254
 21
12.548175686189476
  0
LINE
  8
_0-1_地形
  6
CONTINUOUS
 62
    7
 10
20.68098476226254
 20
12.548175686189476
 11
21.338857222262561
 21
13.363684046189443
  0
LINE
  8
_0-1_地形
  6
CONTINUOUS
 62
    7
 10
21.338857222262561
 20
13.363684046189443
 11
21.870344542262558
 21
14.196969986189467
  0
LINE
  8
_0-1_地形
  6
CONTINUOUS
 62
    7
 10
21.870344542262558
 20
14.196969986189467
 11
22.271763502262559
 21
15.025420106189452
  0
LINE
  8
_0-1_地形
  6
CONTINUOUS
 62
    7
 10
22.271763502262559
 20
15.025420106189452
 11
22.624462162262546
 21
16.061321906189455
  0
LINE
  8
_0-1_地形
  6
CONTINUOUS
 62
    7
 10
3.7925877222625672
 20
14.018775986189477
 11
3.9921252222625867
 21
13.808341826189471
  0
LINE
  8
_0-1_地形
  6
CONTINUOUS
 62
    7
 10
3.9921252222625867
 20
13.808341826189471
 11
4.0670534022625207
 21
13.754805086189458
  0
LINE
  8
_0-1_地形
  6
CONTINUOUS
 62
    7
 10
4.0670534022625207
 20
13.754805086189458
 11
4.1553690822625526
 21
13.753416866189449
  0
LINE
  8
_0-1_地形
  6
CONTINUOUS
 62
    7
 10
4.1553690822625526
 20
13.753416866189449
 11
4.2140619222625446
 21
13.785716186189456
  0
LINE
  8
_0-1_地形
  6
CONTINUOUS
 62
    7
 10
4.2140619222625446
 20
13.785716186189456
 11
4.3998702222625639
 21
13.848074906189462
  0
LINE
  8
_0-1_地形
  6
CONTINUOUS
 62
    7
 10
4.3998702222625639
 20
13.848074906189462
 11
4.5544889622625533
 21
13.947646286189462
  0
LINE
  8
_0-1_地形
  6
CONTINUOUS
 62
    7
 10
4.5544889622625533
 20
13.947646286189462
 11
4.6890575622625761
 21
14.092298606189468
  0
LINE
  8
_0-1_地形
  6
CONTINUOUS
 62
    7
 10
4.6890575622625761
 20
14.092298606189468
 11
4.796112682262522
 21
14.306595506189462
  0
LINE
  8
_0-1_地形
  6
CONTINUOUS
 62
    7
 10
4.796112682262522
 20
14.306595506189462
 11
4.826621902262521
 21
14.448594806189471
  0
LINE
  8
_0-1_地形
  6
CONTINUOUS
 62
    7
 10
4.826621902262521
 20
14.448594806189471
 11
4.8272604222625546
 21
14.62170206618948
  0
LINE
  8
_0-1_地形
  6
CONTINUOUS
 62
    7
 10
4.8272604222625546
 20
14.62170206618948
 11
4.7926916022625505
 21
14.849417066189455
  0
LINE
  8
_0-1_地形
  6
CONTINUOUS
 62
    7
 10
4.7926916022625505
 20
14.849417066189455
 11
4.8337721022625715
 21
15.06228392618946
  0
LINE
  8
_0-1_地形
  6
CONTINUOUS
 62
    7
 10
4.8337721022625715
 20
15.06228392618946
 11
4.9346725422625468
 21
15.172191986189469
  0
LINE
  8
_0-1_地形
  6
CONTINUOUS
 62
    7
 10
4.9346725422625468
 20
15.172191986189469
 11
5.0607741222625577
 21
15.251611226189448
  0
LINE
  8
_0-1_地形
  6
CONTINUOUS
 62
    7
 10
5.0607741222625577
 20
15.251611226189448
 11
5.3301306222625344
 21
15.349587326189459
  0
LINE
  8
_0-1_地形
  6
CONTINUOUS
 62
    7
 10
5.3301306222625344
 20
15.349587326189459
 11
5.4903614022625407
 21
15.458836466189462
  0
LINE
  8
_0-1_地形
  6
CONTINUOUS
 62
    7
 10
5.4903614022625407
 20
15.458836466189462
 11
5.6498975622625567
 21
15.652258046189468
  0
LINE
  8
_0-1_地形
  6
CONTINUOUS
 62
    7
 10
5.6498975622625567
 20
15.652258046189468
 11
5.7399431622625912
 21
15.882385346189475
  0
LINE
  8
_0-1_地形
  6
CONTINUOUS
 62
    7
 10
5.7399431622625912
 20
15.882385346189475
 11
5.7685715022625459
 21
16.184454266189455
  0
LINE
  8
_0-1_地形
  6
CONTINUOUS
 62
    7
 10
24.982265602262544
 20
6.7734314061894541
 11
26.125365322262553
 21
7.1852625261894705
  0
LINE
  8
_0-1_地形
  6
CONTINUOUS
 62
    7
 10
26.125365322262553
 20
7.1852625261894705
 11
26.586631762262584
 21
7.4137323261894554
  0
LINE
  8
_0-1_地形
  6
CONTINUOUS
 62
    7
 10
26.586631762262584
 20
7.4137323261894554
 11
26.990207002262537
 21
7.6944618261894622
  0
LINE
  8
_0-1_地形
  6
CONTINUOUS
 62
    7
 10
26.990207002262537
 20
7.6944618261894622
 11
27.354069562262527
 21
8.0562833661894562
  0
LINE
  8
_0-1_地形
  6
CONTINUOUS
 62
    7
 10
27.354069562262527
 20
8.0562833661894562
 11
27.495021322262517
 21
8.2570979061894665
  0
LINE
  8
_0-1_地形
  6
CONTINUOUS
 62
    7
 10
27.495021322262517
 20
8.2570979061894665
 11
27.527832682262517
 21
8.5417564461894617
  0
LINE
  8
_0-1_地形
  6
CONTINUOUS
 62
    7
 10
27.527832682262517
 20
8.5417564461894617
 11
27.409815622262556
 21
8.6870309661894627
  0
LINE
  8
_0-1_地形
  6
CONTINUOUS
 62
    7
 10
27.409815622262556
 20
8.6870309661894627
 11
27.227056102262566
 21
8.7196158861894677
  0
LINE
  8
_0-1_地形
  6
CONTINUOUS
 62
    7
 10
27.227056102262566
 20
8.7196158861894677
 11
27.081801982262562
 21
8.6822920461894544
  0
LINE
  8
_0-1_地形
  6
CONTINUOUS
 62
    7
 10
27.081801982262562
 20
8.6822920461894544
 11
26.990204962262567
 21
8.5857704661894534
  0
LINE
  8
_0-1_地形
  6
CONTINUOUS
 62
    7
 10
26.990204962262567
 20
8.5857704661894534
 11
26.930756302262541
 21
8.4300939861894566
  0
LINE
  8
_0-1_地形
  6
CONTINUOUS
 62
    7
 10
26.930756302262541
 20
8.4300939861894566
 11
26.957393602262528
 21
8.301110906189459
  0
LINE
  8
_0-1_地形
  6
CONTINUOUS
 62
    7
 10
26.957393602262528
 20
8.301110906189459
 11
26.790734782262536
 21
8.317549226189465
  0
LINE
  8
_0-1_地形
  6
CONTINUOUS
 62
    7
 10
26.790734782262536
 20
8.317549226189465
 11
26.581181902262529
 21
8.3985351861894717
  0
LINE
  8
_0-1_地形
  6
CONTINUOUS
 62
    7
 10
26.581181902262529
 20
8.3985351861894717
 11
26.479276762262543
 21
8.5330344261894542
  0
LINE
  8
_0-1_地形
  6
CONTINUOUS
 62
    7
 10
26.479276762262543
 20
8.5330344261894542
 11
26.474190022262576
 21
8.6834630061894504
  0
LINE
  8
_0-1_地形
  6
CONTINUOUS
 62
    7
 10
26.474190022262576
 20
8.6834630061894504
 11
26.436787642262573
 21
8.807094146189451
  0
LINE
  8
_0-1_地形
  6
CONTINUOUS
 62
    7
 10
26.436787642262573
 20
8.807094146189451
 11
26.329308202262553
 21
8.8395342261894516
  0
LINE
  8
_0-1_地形
  6
CONTINUOUS
 62
    7
 10
26.329308202262553
 20
8.8395342261894516
 11
26.297190442262547
 21
8.9148061461894574
  0
LINE
  8
_0-1_地形
  6
CONTINUOUS
 62
    7
 10
26.297190442262547
 20
8.9148061461894574
 11
26.329557082262529
 21
8.968464266189466
  0
LINE
  8
_0-1_地形
  6
CONTINUOUS
 62
    7
 10
26.329557082262529
 20
8.968464266189466
 11
26.43726398226255
 21
9.0542105661894769
  0
LINE
  8
_0-1_地形
  6
CONTINUOUS
 62
    7
 10
26.43726398226255
 20
9.0542105661894769
 11
26.507495062262553
 21
9.1163367261894539
  0
LINE
  8
_0-1_地形
  6
CONTINUOUS
 62
    7
 10
26.507495062262553
 20
9.1163367261894539
 11
26.426416282262551
 21
9.2259479661894463
  0
LINE
  8
_0-1_地形
  6
CONTINUOUS
 62
    7
 10
26.426416282262551
 20
9.2259479661894463
 11
26.39347028226253
 21
9.3224369061894468
  0
LINE
  8
_0-1_地形
  6
CONTINUOUS
 62
    7
 10
26.39347028226253
 20
9.3224369061894468
 11
26.384635042262573
 21
9.4695209061894534
  0
LINE
  8
_0-1_地形
  6
CONTINUOUS
 62
    7
 10
26.384635042262573
 20
9.4695209061894534
 11
26.351440162262577
 21
9.5513524461894637
  0
LINE
  8
_0-1_地形
  6
CONTINUOUS
 62
    7
 10
26.351440162262577
 20
9.5513524461894637
 11
26.229747022262547
 21
9.6810189261894468
  0
LINE
  8
_0-1_地形
  6
CONTINUOUS
 62
    7
 10
26.229747022262547
 20
9.6810189261894468
 11
24.564571522262554
 21
9.5129882061894708
  0
LINE
  8
_0-1_地形
  6
CONTINUOUS
 62
    7
 10
24.564571522262554
 20
9.5129882061894708
 11
22.504970182262543
 21
9.0847983261894516
  0
LINE
  8
_0-1_地形
  6
CONTINUOUS
 62
    7
 10
22.504970182262543
 20
9.0847983261894516
 11
22.163255902262524
 21
9.0556304061894455
  0
LINE
  8
_0-1_地形
  6
CONTINUOUS
 62
    7
 10
22.163255902262524
 20
9.0556304061894455
 11
21.572281162262545
 21
8.9605837461894655
  0
LINE
  8
_0-1_地形
  6
CONTINUOUS
 62
    7
 10
21.572281162262545
 20
8.9605837461894655
 11
21.011918662262548
 21
8.8160701461894693
  0
LINE
  8
_0-1_地形
  6
CONTINUOUS
 62
    7
 10
21.011918662262548
 20
8.8160701461894693
 11
20.125711042262537
 21
8.2866666861894576
  0
LINE
  8
_0-1_地形
  6
CONTINUOUS
 62
    7
 10
20.125711042262537
 20
8.2866666861894576
 11
20.057435302262547
 21
8.2720133661894639
  0
LINE
  8
_0-1_地形
  6
CONTINUOUS
 62
    7
 10
20.057435302262547
 20
8.2720133661894639
 11
19.586851162262576
 21
8.2664400861894425
  0
LINE
  8
_0-1_地形
  6
CONTINUOUS
 62
    7
 10
19.586851162262576
 20
8.2664400861894425
 11
19.371589342262553
 21
8.212899266189476
  0
LINE
  8
_0-1_地形
  6
CONTINUOUS
 62
    7
 10
19.371589342262553
 20
8.212899266189476
 11
19.15743014226253
 21
8.1179270661894467
  0
LINE
  8
_0-1_地形
  6
CONTINUOUS
 62
    7
 10
19.15743014226253
 20
8.1179270661894467
 11
18.942878242262566
 21
7.9692467661894657
  0
LINE
  8
_0-1_地形
  6
CONTINUOUS
 62
    7
 10
18.942878242262566
 20
7.9692467661894657
 11
18.781641742262593
 21
7.8055826661894461
  0
LINE
  8
_0-1_地形
  6
CONTINUOUS
 62
    7
 10
18.781641742262593
 20
7.8055826661894461
 11
18.776748802262546
 21
7.6769494461894627
  0
LINE
  8
_0-1_地形
  6
CONTINUOUS
 62
    7
 10
18.776748802262546
 20
7.6769494461894627
 11
18.812921062262546
 21
7.5323613861894447
  0
LINE
  8
_0-1_地形
  6
CONTINUOUS
 62
    7
 10
18.812921062262546
 20
7.5323613861894447
 11
18.651380602262577
 21
6.7401273861894655
  0
LINE
  8
_0-1_地形
  6
CONTINUOUS
 62
    7
 10
7.9806495822625338
 20
6.7105769661894588
 11
7.3634047422625217
 21
7.03633844618947
  0
LINE
  8
_0-1_地形
  6
CONTINUOUS
 62
    7
 10
7.3634047422625217
 20
7.03633844618947
 11
6.6025551222625722
 21
7.3577781861894582
  0
LINE
  8
_0-1_地形
  6
CONTINUOUS
 62
    7
 10
6.6025551222625722
 20
7.3577781861894582
 11
5.9571062622625277
 21
7.568043026189466
  0
LINE
  8
_0-1_地形
  6
CONTINUOUS
 62
    7
 10
5.9571062622625277
 20
7.568043026189466
 11
5.2454594022625542
 21
7.7387481861894631
  0
LINE
  8
_0-1_地形
  6
CONTINUOUS
 62
    7
 10
5.2454594022625542
 20
7.7387481861894631
 11
4.5717249222625469
 21
7.8445385061894601
  0
LINE
  8
_0-1_地形
  6
CONTINUOUS
 62
    7
 10
4.5717249222625469
 20
7.8445385061894601
 11
3.8701342422625657
 21
7.8991329861894659
  0
LINE
  8
_0-1_地形
  6
CONTINUOUS
 62
    7
 10
7.3287145422625217
 20
6.7630131261894721
 11
6.7387220622625437
 21
7.0247583861894558
  0
LINE
  8
_0-1_地形
  6
CONTINUOUS
 62
    7
 10
6.7387220622625437
 20
7.0247583861894558
 11
6.1438733622625818
 21
7.2363675861894539
  0
LINE
  8
_0-1_地形
  6
CONTINUOUS
 62
    7
 10
6.1438733622625818
 20
7.2363675861894539
 11
5.5044557622625803
 21
7.4098848861894542
  0
LINE
  8
_0-1_地形
  6
CONTINUOUS
 62
    7
 10
5.5044557622625803
 20
7.4098848861894542
 11
4.8951618222625557
 21
7.5263372661894667
  0
LINE
  8
_0-1_地形
  6
CONTINUOUS
 62
    7
 10
4.8951618222625557
 20
7.5263372661894667
 11
4.2882261222625289
 21
7.5969192261894651
  0
LINE
  8
_0-1_地形
  6
CONTINUOUS
 62
    7
 10
4.2882261222625289
 20
7.5969192261894651
 11
3.8551902222625358
 21
7.6233372261894718
  0
LINE
  8
_0-1_地形
  6
CONTINUOUS
 62
    7
 10
4.3034486022625629
 20
7.517629526189447
 11
4.2760044822625405
 21
7.7505036861894414
  0
LINE
  8
_0-1_地形
  6
CONTINUOUS
 62
    7
 10
4.2760044822625405
 20
7.7505036861894414
 11
4.3933340622625678
 21
7.8584207061894578
  0
LINE
  8
_0-1_地形
  6
CONTINUOUS
 62
    7
 10
3.6971075622625449
 20
7.9040218461894458
 11
3.8360019822625304
 21
7.7861547261894462
  0
LINE
  8
_0-1_地形
  6
CONTINUOUS
 62
    7
 10
3.8360019822625304
 20
7.7861547261894462
 11
3.8551902222625358
 21
7.6233372261894718
  0
TEXT
  8
_0-1_地形
 62
    4
 10
43.793800902262547
 20
17.444497779522795
 40
0.0708333333333333
 41
1
 50
0
  1
W C
  0
LINE
  8
_0-0_9001
  6
CONTINUOUS
 62
  230
 10
17.073370810802317
 20
24.733923494729247
 11
17.562095062262529
 21
25.222647746189459
  0
LINE
  8
_0-0_9001
  6
CONTINUOUS
 62
  230
 10
17.073370810802317
 20
24.733923494729247
 11
17.562095062262529
 21
25.222647746189459
  0
LINE
  8
_0-1_地形
  6
CONTINUOUS
 62
    7
 10
45.719758102262553
 20
19.626193346189474
 11
45.721314622262561
 21
19.529308646189456
  0
LINE
  8
_0-1_地形
  6
CONTINUOUS
 62
    7
 10
45.721314622262561
 20
19.529308646189456
 11
45.763692562262534
 21
19.451026706189445
  0
LINE
  8
_0-1_地形
  6
CONTINUOUS
 62
    7
 10
45.763692562262534
 20
19.451026706189445
 11
45.862006282262541
 21
19.391254706189464
  0
LINE
  8
_0-1_地形
  6
CONTINUOUS
 62
    7
 10
46.231249342262529
 20
21.447598166189458
 11
45.958881802262546
 21
20.88295982618947
  0
LINE
  8
_0-1_地形
  6
CONTINUOUS
 62
    7
 10
45.958881802262546
 20
20.88295982618947
 11
45.775302202262573
 21
20.217802526189452
  0
LINE
  8
_0-1_地形
  6
CONTINUOUS
 62
    7
 10
45.775302202262573
 20
20.217802526189452
 11
45.719758102262553
 21
19.626193346189474
  0
LINE
  8
_0-1_地形
  6
CONTINUOUS
 62
    7
 10
46.040133982262546
 20
22.433318006189474
 11
45.702358942262528
 21
21.938370146189477
  0
LINE
  8
_0-1_地形
  6
CONTINUOUS
 62
    7
 10
45.702358942262528
 20
21.938370146189477
 11
45.442757722262549
 21
21.300677366189468
  0
LINE
  8
_0-1_地形
  6
CONTINUOUS
 62
    7
 10
45.442757722262549
 20
21.300677366189468
 11
45.331101382262524
 21
20.558377466189462
  0
LINE
  8
_0-1_地形
  6
CONTINUOUS
 62
    7
 10
45.331101382262524
 20
20.558377466189462
 11
45.38360996226254
 21
19.913132606189457
  0
LINE
  8
_0-1_地形
  6
CONTINUOUS
 62
    7
 10
45.38360996226254
 20
19.913132606189457
 11
45.542145502262542
 21
19.36554968618946
  0
LINE
  8
_0-1_地形
  6
CONTINUOUS
 62
    7
 10
45.542145502262542
 20
19.36554968618946
 11
45.813363502262519
 21
18.833226986189452
  0
LINE
  8
_0-1_地形
  6
CONTINUOUS
 62
    7
 10
45.813363502262519
 20
18.833226986189452
 11
45.953660422262544
 21
18.636521006189462
  0
LINE
  8
_0-1_地形
  6
CONTINUOUS
 62
    7
 10
45.953660422262544
 20
18.636521006189462
 11
46.129902142262551
 21
18.534528146189452
  0
LINE
  8
_0-1_地形
  6
CONTINUOUS
 62
    7
 10
43.457235922262534
 20
20.962843166189465
 11
43.80104324226253
 21
20.698344926189471
  0
LINE
  8
_0-1_地形
  6
CONTINUOUS
 62
    7
 10
43.80104324226253
 20
20.698344926189471
 11
44.179668262262545
 21
20.501795006189461
  0
LINE
  8
_0-1_地形
  6
CONTINUOUS
 62
    7
 10
44.179668262262545
 20
20.501795006189461
 11
44.558395282262531
 21
20.380750586189457
  0
LINE
  8
_0-1_地形
  6
CONTINUOUS
 62
    7
 10
44.558395282262531
 20
20.380750586189457
 11
44.850479422262573
 21
20.331594746189459
  0
LINE
  8
_0-1_地形
  6
CONTINUOUS
 62
    7
 10
44.850479422262573
 20
20.331594746189459
 11
44.854028002262545
 21
19.813681586189453
  0
LINE
  8
_0-1_地形
  6
CONTINUOUS
 62
    7
 10
44.854028002262545
 20
19.813681586189453
 11
44.900834782262521
 21
19.224574466189473
  0
LINE
  8
_0-1_地形
  6
CONTINUOUS
 62
    7
 10
44.900834782262521
 20
19.224574466189473
 11
45.07341878226255
 21
18.279703586189477
  0
LINE
  8
_0-1_地形
  6
CONTINUOUS
 62
    7
 10
45.07341878226255
 20
18.279703586189477
 11
45.410193202262533
 21
17.606036426189469
  0
LINE
  8
_0-1_地形
  6
CONTINUOUS
 62
    7
 10
45.410193202262533
 20
17.606036426189469
 11
45.871338262262555
 21
16.911971306189479
  0
LINE
  8
_0-1_地形
  6
CONTINUOUS
 62
    7
 10
45.871338262262555
 20
16.911971306189479
 11
46.333404382262565
 21
16.477212626189448
  0
LINE
  8
_0-1_地形
  6
CONTINUOUS
 62
    7
 10
43.219484122262543
 20
20.578715246189454
 11
44.058773782262541
 21
19.990587326189463
  0
LINE
  8
_0-1_地形
  6
CONTINUOUS
 62
    7
 10
44.058773782262541
 20
19.990587326189463
 11
44.215248922262539
 21
20.213885726189467
  0
LINE
  8
_0-1_地形
  6
CONTINUOUS
 62
    7
 10
44.215248922262539
 20
20.213885726189467
 11
43.363218442262543
 21
20.810941706189475
  0
LINE
  8
_0-1_地形
  6
CONTINUOUS
 62
    7
 10
44.044842622262571
 20
20.333297126189443
 11
43.888367482262538
 21
20.109998726189453
  0
LINE
  8
_0-1_地形
  6
CONTINUOUS
 62
    7
 10
43.874436322262525
 20
20.452707506189462
 11
43.717961182262549
 21
20.229409106189458
  0
LINE
  8
_0-1_地形
  6
CONTINUOUS
 62
    7
 10
43.704030022262543
 20
20.572118906189438
 11
43.547555902262538
 21
20.348820506189448
  0
LINE
  8
_0-1_地形
  6
CONTINUOUS
 62
    7
 10
43.533624742262568
 20
20.691530306189456
 11
43.377149602262534
 21
20.468231906189466
  0
LINE
  8
_0-1_地形
  6
CONTINUOUS
 62
    7
 10
43.073841382262529
 20
20.343405326189462
 11
43.463622142262537
 21
20.125178366189452
  0
LINE
  8
_0-1_地形
  6
CONTINUOUS
 62
    7
 10
43.463622142262537
 20
20.125178366189452
 11
43.833447622262533
 21
19.896207746189454
  0
LINE
  8
_0-1_地形
  6
CONTINUOUS
 62
    7
 10
43.833447622262533
 20
19.896207746189454
 11
44.069241022262567
 21
19.727219246189456
  0
LINE
  8
_0-1_地形
  6
CONTINUOUS
 62
    7
 10
44.069241022262567
 20
19.727219246189456
 11
44.185885162262537
 21
19.575309626189458
  0
LINE
  8
_0-1_地形
  6
CONTINUOUS
 62
    7
 10
44.185885162262537
 20
19.575309626189458
 11
44.251157002262552
 21
19.438757126189465
  0
LINE
  8
_0-1_地形
  6
CONTINUOUS
 62
    7
 10
44.251157002262552
 20
19.438757126189465
 11
44.446757302262519
 21
18.915141146189463
  0
LINE
  8
_0-1_地形
  6
CONTINUOUS
 62
    7
 10
44.446757302262519
 20
18.915141146189463
 11
44.757867502262528
 21
18.414025346189469
  0
LINE
  8
_0-1_地形
  6
CONTINUOUS
 62
    7
 10
44.757867502262528
 20
18.414025346189469
 11
45.002296222262522
 21
17.810199626189451
  0
LINE
  8
_0-1_地形
  6
CONTINUOUS
 62
    7
 10
45.002296222262522
 20
17.810199626189451
 11
45.543104302262535
 21
16.820070326189459
  0
LINE
  8
_0-1_地形
  6
CONTINUOUS
 62
    7
 10
45.543104302262535
 20
16.820070326189459
 11
45.838989982262525
 21
16.469256626189441
  0
LINE
  8
_0-1_地形
  6
CONTINUOUS
 62
    7
 10
46.179055942262551
 20
23.956629866189452
 11
45.689095882262521
 21
23.161463366189459
  0
LINE
  8
_0-1_地形
  6
CONTINUOUS
 62
    7
 10
45.689095882262521
 20
23.161463366189459
 11
45.158294002262508
 21
22.402157006189462
  0
LINE
  8
_0-1_地形
  6
CONTINUOUS
 62
    7
 10
45.158294002262508
 20
22.402157006189462
 11
44.66744552226254
 21
21.869805746189449
  0
LINE
  8
_0-1_地形
  6
CONTINUOUS
 62
    7
 10
44.66744552226254
 20
21.869805746189449
 11
44.098248802262539
 21
21.384725366189478
  0
LINE
  8
_0-1_地形
  6
CONTINUOUS
 62
    7
 10
44.098248802262539
 20
21.384725366189478
 11
43.457235922262534
 21
20.962843166189465
  0
LINE
  8
_0-1_地形
  6
CONTINUOUS
 62
    7
 10
43.457235922262534
 20
20.962843166189465
 11
43.073841382262529
 21
20.343405326189462
  0
LINE
  8
_0-1_地形
  6
CONTINUOUS
 62
    7
 10
43.073841382262529
 20
20.343405326189462
 11
42.988297042262538
 21
19.419933026189447
  0
LINE
  8
_0-1_地形
  6
CONTINUOUS
 62
    7
 10
42.988297042262538
 20
19.419933026189447
 11
43.02448766226253
 21
18.434944526189476
  0
LINE
  8
_0-1_地形
  6
CONTINUOUS
 62
    7
 10
43.02448766226253
 20
18.434944526189476
 11
43.082860222262525
 21
17.291324606189441
  0
LINE
  8
_0-1_地形
  6
CONTINUOUS
 62
    7
 10
43.082860222262525
 20
17.291324606189441
 11
43.150702462262565
 21
16.195568186189469
  0
LINE
  8
_0-1_地形
  6
CONTINUOUS
 62
    7
 10
43.321634062262525
 20
18.591841946189469
 11
43.347274822262534
 21
17.89537676618945
  0
LINE
  8
_0-1_地形
  6
CONTINUOUS
 62
    7
 10
43.347274822262534
 20
17.89537676618945
 11
43.780659562262542
 21
17.911332626189456
  0
LINE
  8
_0-1_地形
  6
CONTINUOUS
 62
    7
 10
43.780659562262542
 20
17.911332626189456
 11
43.755018802262533
 21
18.607796786189446
  0
LINE
  8
_0-1_地形
  6
CONTINUOUS
 62
    7
 10
43.755018802262533
 20
18.607796786189446
 11
43.321634062262525
 21
18.591841946189469
  0
LINE
  8
_0-1_地形
  6
CONTINUOUS
 62
    7
 10
45.615066322262535
 20
23.886026486189444
 11
45.065097622262535
 21
23.195700686189461
  0
LINE
  8
_0-1_地形
  6
CONTINUOUS
 62
    7
 10
45.065097622262535
 20
23.195700686189461
 11
44.36161382226252
 21
22.451132306189457
  0
LINE
  8
_0-1_地形
  6
CONTINUOUS
 62
    7
 10
44.36161382226252
 20
22.451132306189457
 11
43.740264502262541
 21
21.827904146189461
  0
LINE
  8
_0-1_地形
  6
CONTINUOUS
 62
    7
 10
43.740264502262541
 20
21.827904146189461
 11
43.583237542262545
 21
21.701071226189448
  0
LINE
  8
_0-1_地形
  6
CONTINUOUS
 62
    7
 10
43.583237542262545
 20
21.701071226189448
 11
43.44374540226255
 21
21.622602626189455
  0
LINE
  8
_0-1_地形
  6
CONTINUOUS
 62
    7
 10
43.44374540226255
 20
21.622602626189455
 11
43.321027162262524
 21
21.622118126189456
  0
LINE
  8
_0-1_地形
  6
CONTINUOUS
 62
    7
 10
43.321027162262524
 20
21.622118126189456
 11
43.220609182262535
 21
21.666011786189465
  0
LINE
  8
_0-1_地形
  6
CONTINUOUS
 62
    7
 10
43.220609182262535
 20
21.666011786189465
 11
43.168274002262535
 21
21.754167326189453
  0
LINE
  8
_0-1_地形
  6
CONTINUOUS
 62
    7
 10
43.168274002262535
 20
21.754167326189453
 11
42.982951222262535
 21
31.079305166189449
  0
LINE
  8
_0-1_地形
  6
CONTINUOUS
 62
    7
 10
45.799511902262523
 20
24.833659526189457
 11
45.423571522262534
 21
24.219128906189447
  0
LINE
  8
_0-1_地形
  6
CONTINUOUS
 62
    7
 10
45.423571522262534
 20
24.219128906189447
 11
45.001244602262545
 21
23.607366566189462
  0
LINE
  8
_0-1_地形
  6
CONTINUOUS
 62
    7
 10
45.001244602262545
 20
23.607366566189462
 11
44.700414982262558
 21
23.17934702618944
  0
LINE
  8
_0-1_地形
  6
CONTINUOUS
 62
    7
 10
44.700414982262558
 20
23.17934702618944
 11
44.295209782262532
 21
22.692640766189449
  0
LINE
  8
_0-1_地形
  6
CONTINUOUS
 62
    7
 10
44.295209782262532
 20
22.692640766189449
 11
43.919361202262543
 21
22.310295806189465
  0
LINE
  8
_0-1_地形
  6
CONTINUOUS
 62
    7
 10
43.919361202262543
 20
22.310295806189465
 11
43.554948862262542
 21
22.018056626189441
  0
LINE
  8
_0-1_地形
  6
CONTINUOUS
 62
    7
 10
43.554948862262542
 20
22.018056626189441
 11
43.411348162262541
 21
21.966265106189461
  0
LINE
  8
_0-1_地形
  6
CONTINUOUS
 62
    7
 10
43.411348162262541
 20
21.966265106189461
 11
43.273220782262527
 21
21.946535246189462
  0
LINE
  8
_0-1_地形
  6
CONTINUOUS
 62
    7
 10
43.273220782262527
 20
21.946535246189462
 11
43.16438474226252
 21
21.949898186189465
  0
LINE
  8
_0-1_地形
  6
DASHED2
 62
    7
 10
42.253984762262533
 20
21.101252066189467
 11
43.185037702262527
 21
21.725929646189449
  0
LINE
  8
_0-1_地形
  6
CONTINUOUS
 62
    7
 10
42.62854406226252
 20
19.197103826189455
 11
42.807832522262551
 21
19.203705266189452
  0
LINE
  8
_0-1_地形
  6
CONTINUOUS
 62
    7
 10
42.617024182262561
 20
19.510024526189447
 11
42.62854406226252
 21
19.197103826189455
  0
LINE
  8
_0-1_地形
  6
CONTINUOUS
 62
    7
 10
42.807832522262551
 20
19.203705266189452
 11
42.796311622262536
 21
19.516624946189445
  0
LINE
  8
_0-1_地形
  6
CONTINUOUS
 62
    7
 10
42.796311622262536
 20
19.516624946189445
 11
42.617024182262561
 21
19.510024526189447
  0
LINE
  8
_0-1_地形
  6
CONTINUOUS
 62
    7
 10
42.457211602262568
 20
12.73041398618947
 11
42.165979162262545
 21
18.539002886189458
  0
LINE
  8
_0-1_地形
  6
CONTINUOUS
 62
    7
 10
42.165979162262545
 20
18.539002886189458
 11
42.188388562262539
 21
18.638810906189455
  0
LINE
  8
_0-1_地形
  6
CONTINUOUS
 62
    7
 10
42.188388562262539
 20
18.638810906189455
 11
42.279671422262552
 21
18.694529426189469
  0
LINE
  8
_0-1_地形
  6
CONTINUOUS
 62
    7
 10
42.279671422262552
 20
18.694529426189469
 11
42.372795382262552
 21
18.673027826189447
  0
LINE
  8
_0-1_地形
  6
CONTINUOUS
 62
    7
 10
42.372795382262552
 20
18.673027826189447
 11
42.419822482262532
 21
18.617791766189463
  0
LINE
  8
_0-1_地形
  6
CONTINUOUS
 62
    7
 10
42.419822482262532
 20
18.617791766189463
 11
42.538787122262534
 21
16.387570946189449
  0
LINE
  8
_0-1_地形
  6
CONTINUOUS
 62
    7
 10
38.247277882262551
 20
16.429205306189452
 11
38.155920562262565
 21
16.582082906189449
  0
LINE
  8
_0-1_地形
  6
CONTINUOUS
 62
    7
 10
38.155920562262565
 20
16.582082906189449
 11
38.176641862262557
 21
16.765284086189446
  0
LINE
  8
_0-1_地形
  6
CONTINUOUS
 62
    7
 10
38.176641862262557
 20
16.765284086189446
 11
38.198642242262565
 21
16.973960786189458
  0
LINE
  8
_0-1_地形
  6
CONTINUOUS
 62
    7
 10
37.635910282262515
 20
16.437902846189466
 11
38.298823582262528
 21
17.06939402618945
  0
LINE
  8
_0-1_地形
  6
CONTINUOUS
 62
    7
 10
38.298823582262528
 20
17.06939402618945
 11
38.202677362262534
 21
17.170324046189442
  0
LINE
  8
_0-1_地形
  6
CONTINUOUS
 62
    7
 10
38.202677362262534
 20
17.170324046189442
 11
37.539763042262564
 21
16.538833886189458
  0
LINE
  8
_0-1_地形
  6
CONTINUOUS
 62
    7
 10
37.539763042262564
 20
16.538833886189458
 11
37.635910282262515
 21
16.437902846189466
  0
LINE
  8
_0-1_地形
  6
CONTINUOUS
 62
    7
 10
37.768492942262526
 20
16.564201286189451
 11
37.672345702262589
 21
16.665131306189458
  0
LINE
  8
_0-1_地形
  6
CONTINUOUS
 62
    7
 10
37.901075602262551
 20
16.690498706189452
 11
37.804929382262515
 21
16.791429746189472
  0
LINE
  8
_0-1_地形
  6
CONTINUOUS
 62
    7
 10
38.03365826226252
 20
16.816797146189465
 11
37.93751204226254
 21
16.917728186189457
  0
LINE
  8
_0-1_地形
  6
CONTINUOUS
 62
    7
 10
38.166240922262546
 20
16.94309558618945
 11
38.070094702262566
 21
17.044026626189456
  0
LINE
  8
_0-1_地形
  6
CONTINUOUS
 62
    7
 10
36.53244674226255
 20
16.07637404618945
 11
37.505434942262525
 21
16.968812846189458
  0
LINE
  8
_0-1_地形
  6
CONTINUOUS
 62
    7
 10
37.505434942262525
 20
16.968812846189458
 11
38.580558802262544
 21
17.82426338618945
  0
LINE
  8
_0-1_地形
  6
CONTINUOUS
 62
    7
 10
38.580558802262544
 20
17.82426338618945
 11
40.171698622262547
 21
18.874766486189465
  0
LINE
  8
_0-1_地形
  6
CONTINUOUS
 62
    7
 10
40.171698622262547
 20
18.874766486189465
 11
41.597426062262528
 21
19.707080366189452
  0
LINE
  8
_0-1_地形
  6
CONTINUOUS
 62
    7
 10
41.597426062262528
 20
19.707080366189452
 11
41.666843182262539
 21
19.71964574618945
  0
LINE
  8
_0-1_地形
  6
CONTINUOUS
 62
    7
 10
41.666843182262539
 20
19.71964574618945
 11
41.709416962262537
 21
19.688567366189467
  0
LINE
  8
_0-1_地形
  6
CONTINUOUS
 62
    7
 10
41.709416962262537
 20
19.688567366189467
 11
41.713187902262533
 21
19.634316626189452
  0
LINE
  8
_0-1_地形
  6
CONTINUOUS
 62
    7
 10
41.713187902262533
 20
19.634316626189452
 11
41.685960022262556
 21
19.584001046189449
  0
LINE
  8
_0-1_地形
  6
CONTINUOUS
 62
    7
 10
41.685960022262556
 20
19.584001046189449
 11
41.612927002262552
 21
19.523124386189444
  0
LINE
  8
_0-1_地形
  6
CONTINUOUS
 62
    7
 10
41.612927002262552
 20
19.523124386189444
 11
40.865574022262571
 21
19.037055626189478
  0
LINE
  8
_0-1_地形
  6
CONTINUOUS
 62
    7
 10
40.865574022262571
 20
19.037055626189478
 11
40.056172402262554
 21
18.492165506189458
  0
LINE
  8
_0-1_地形
  6
CONTINUOUS
 62
    7
 10
40.056172402262554
 20
18.492165506189458
 11
39.260782522262538
 21
17.937385466189461
  0
LINE
  8
_0-1_地形
  6
CONTINUOUS
 62
    7
 10
39.260782522262538
 20
17.937385466189461
 11
38.203693282262577
 21
17.16925814618947
  0
LINE
  8
_0-1_地形
  6
DASHED2
 62
    7
 10
37.539763042262564
 20
16.538833886189458
 11
36.883837762262544
 21
15.905619926189454
  0
LINE
  8
_0-1_地形
  6
CONTINUOUS
 62
    7
 10
42.253984762262533
 20
21.101252066189467
 11
42.190210282262527
 21
27.814554446189469
  0
LINE
  8
_0-1_地形
  6
CONTINUOUS
 62
    7
 10
42.190210282262527
 20
27.814554446189469
 11
42.021363562262536
 21
30.700622006189469
  0
LINE
  8
_0-1_地形
  6
CONTINUOUS
 62
    7
 10
42.021363562262536
 20
30.700622006189469
 11
41.920560022262521
 21
31.049642546189453
  0
LINE
  8
_0-1_地形
  6
CONTINUOUS
 62
    7
 10
32.982284722262534
 20
31.052128286189465
 11
31.455292702262529
 21
30.688923626189457
  0
LINE
  8
_0-1_地形
  6
CONTINUOUS
 62
    7
 10
31.455292702262529
 20
30.688923626189457
 11
30.360318622262582
 21
30.314034866189466
  0
LINE
  8
_0-1_地形
  6
CONTINUOUS
 62
    7
 10
30.360318622262582
 20
30.314034866189466
 11
29.242054882262551
 21
29.26654280618947
  0
LINE
  8
_0-1_地形
  6
CONTINUOUS
 62
    7
 10
29.242054882262551
 20
29.26654280618947
 11
27.220158862262565
 21
25.005252086189465
  0
LINE
  8
_0-1_地形
  6
CONTINUOUS
 62
    7
 10
32.907392242262574
 20
18.997507166189457
 11
33.402128962262566
 21
19.443522566189465
  0
LINE
  8
_0-1_地形
  6
CONTINUOUS
 62
    7
 10
33.402128962262566
 20
19.443522566189465
 11
33.988514722262551
 21
19.922439086189463
  0
LINE
  8
_0-1_地形
  6
CONTINUOUS
 62
    7
 10
33.988514722262551
 20
19.922439086189463
 11
34.713270622262542
 21
20.519456306189461
  0
LINE
  8
_0-1_地形
  6
CONTINUOUS
 62
    7
 10
34.713270622262542
 20
20.519456306189461
 11
35.419284022262516
 21
20.958688706189456
  0
LINE
  8
_0-1_地形
  6
CONTINUOUS
 62
    7
 10
35.419284022262516
 20
20.958688706189456
 11
36.143139262262537
 21
21.324941126189465
  0
LINE
  8
_0-1_地形
  6
CONTINUOUS
 62
    7
 10
36.143139262262537
 20
21.324941126189465
 11
36.919423522262548
 21
21.658434206189462
  0
LINE
  8
_0-1_地形
  6
CONTINUOUS
 62
    7
 10
36.919423522262548
 20
21.658434206189462
 11
38.050245502262555
 21
22.041542126189462
  0
LINE
  8
_0-1_地形
  6
CONTINUOUS
 62
    7
 10
38.050245502262555
 20
22.041542126189462
 11
38.901053002262529
 21
22.392733226189456
  0
LINE
  8
_0-1_地形
  6
CONTINUOUS
 62
    7
 10
38.901053002262529
 20
22.392733226189456
 11
39.49768976226251
 21
22.827499046189452
  0
LINE
  8
_0-1_地形
  6
CONTINUOUS
 62
    7
 10
39.49768976226251
 20
22.827499046189452
 11
39.726092242262553
 21
23.062871186189476
  0
LINE
  8
_0-1_地形
  6
CONTINUOUS
 62
    7
 10
39.726092242262553
 20
23.062871186189476
 11
39.731277922262542
 21
23.147097686189461
  0
LINE
  8
_0-1_地形
  6
CONTINUOUS
 62
    7
 10
39.731277922262542
 20
23.147097686189461
 11
39.558980542262532
 21
23.307089786189472
  0
LINE
  8
_0-1_地形
  6
CONTINUOUS
 62
    7
 10
39.558980542262532
 20
23.307089786189472
 11
39.500445802262519
 21
23.290065986189454
  0
LINE
  8
_0-1_地形
  6
CONTINUOUS
 62
    7
 10
39.500445802262519
 20
23.290065986189454
 11
39.370470262262565
 21
23.163390146189464
  0
LINE
  8
_0-1_地形
  6
CONTINUOUS
 62
    7
 10
39.370470262262565
 20
23.163390146189464
 11
39.133062202262558
 21
22.962177806189452
  0
LINE
  8
_0-1_地形
  6
CONTINUOUS
 62
    7
 10
39.133062202262558
 20
22.962177806189452
 11
38.826579742262538
 21
22.749540446189478
  0
LINE
  8
_0-1_地形
  6
CONTINUOUS
 62
    7
 10
38.826579742262538
 20
22.749540446189478
 11
38.378901742262542
 21
22.514984306189454
  0
LINE
  8
_0-1_地形
  6
CONTINUOUS
 62
    7
 10
38.378901742262542
 20
22.514984306189454
 11
37.765363582262538
 21
22.311639146189471
  0
LINE
  8
_0-1_地形
  6
CONTINUOUS
 62
    7
 10
37.765363582262538
 20
22.311639146189471
 11
37.017699502262531
 21
22.063838306189474
  0
LINE
  8
_0-1_地形
  6
CONTINUOUS
 62
    7
 10
37.017699502262531
 20
22.063838306189474
 11
36.130356622262582
 21
21.709623926189458
  0
LINE
  8
_0-1_地形
  6
CONTINUOUS
 62
    7
 10
36.130356622262582
 20
21.709623926189458
 11
35.45965664226253
 21
21.39554348618946
  0
LINE
  8
_0-1_地形
  6
CONTINUOUS
 62
    7
 10
35.45965664226253
 20
21.39554348618946
 11
34.55250128226254
 21
20.85685700618945
  0
LINE
  8
_0-1_地形
  6
CONTINUOUS
 62
    7
 10
34.55250128226254
 20
20.85685700618945
 11
33.812010862262525
 21
20.289471806189461
  0
LINE
  8
_0-1_地形
  6
CONTINUOUS
 62
    7
 10
33.812010862262525
 20
20.289471806189461
 11
33.234145162262564
 21
19.75048646618945
  0
LINE
  8
_0-1_地形
  6
CONTINUOUS
 62
    7
 10
33.234145162262564
 20
19.75048646618945
 11
32.717194882262561
 21
19.17559916618945
  0
LINE
  8
_0-1_地形
  6
CONTINUOUS
 62
    7
 10
39.731277922262542
 20
23.147097686189461
 11
40.480194562262525
 21
24.026189786189455
  0
LINE
  8
_0-1_地形
  6
CONTINUOUS
 62
    7
 10
40.480194562262525
 20
24.026189786189455
 11
41.187119842262554
 21
24.855991406189467
  0
LINE
  8
_0-1_地形
  6
CONTINUOUS
 62
    7
 10
41.187119842262554
 20
24.855991406189467
 11
41.436903562262557
 21
25.149191426189468
  0
LINE
  8
_0-1_地形
  6
CONTINUOUS
 62
    7
 10
41.436903562262557
 20
25.149191426189468
 11
41.541048622262544
 21
25.332203906189456
  0
LINE
  8
_0-1_地形
  6
CONTINUOUS
 62
    7
 10
41.541048622262544
 20
25.332203906189456
 11
41.620732042262524
 21
25.539998306189453
  0
LINE
  8
_0-1_地形
  6
CONTINUOUS
 62
    7
 10
41.620732042262524
 20
25.539998306189453
 11
41.669273842262534
 21
25.716941786189459
  0
LINE
  8
_0-1_地形
  6
CONTINUOUS
 62
    7
 10
41.669273842262534
 20
25.716941786189459
 11
41.740583062262523
 21
25.803065486189475
  0
LINE
  8
_0-1_地形
  6
CONTINUOUS
 62
    7
 10
41.740583062262523
 20
25.803065486189475
 11
41.84669162226254
 21
25.850262926189451
  0
LINE
  8
_0-1_地形
  6
CONTINUOUS
 62
    7
 10
41.84669162226254
 20
25.850262926189451
 11
41.926392382262556
 21
25.852124426189455
  0
LINE
  8
_0-1_地形
  6
CONTINUOUS
 62
    7
 10
41.926392382262556
 20
25.852124426189455
 11
41.998280962262527
 21
25.875581366189458
  0
LINE
  8
_0-1_地形
  6
CONTINUOUS
 62
    7
 10
41.998280962262527
 20
25.875581366189458
 11
42.042980422262531
 21
25.930803146189454
  0
LINE
  8
_0-1_地形
  6
CONTINUOUS
 62
    7
 10
42.042980422262531
 20
25.930803146189454
 11
42.06962486226255
 21
26.127738626189448
  0
LINE
  8
_0-1_地形
  6
CONTINUOUS
 62
    7
 10
42.06962486226255
 20
26.127738626189448
 11
42.034292062262523
 21
26.133696446189454
  0
LINE
  8
_0-1_地形
  6
CONTINUOUS
 62
    7
 10
42.034292062262523
 20
26.133696446189454
 11
42.019739722262536
 21
26.028896546189451
  0
LINE
  8
_0-1_地形
  6
CONTINUOUS
 62
    7
 10
42.019739722262536
 20
26.028896546189451
 11
41.996471482262542
 21
25.983700346189458
  0
LINE
  8
_0-1_地形
  6
CONTINUOUS
 62
    7
 10
41.996471482262542
 20
25.983700346189458
 11
41.952263662262546
 21
25.955095466189455
  0
LINE
  8
_0-1_地形
  6
CONTINUOUS
 62
    7
 10
41.952263662262546
 20
25.955095466189455
 11
41.894851942262562
 21
25.940977646189445
  0
LINE
  8
_0-1_地形
  6
CONTINUOUS
 62
    7
 10
41.894851942262562
 20
25.940977646189445
 11
41.796756502262532
 21
25.933425566189463
  0
LINE
  8
_0-1_地形
  6
CONTINUOUS
 62
    7
 10
41.796756502262532
 20
25.933425566189463
 11
41.688747682262544
 21
25.888379306189471
  0
LINE
  8
_0-1_地形
  6
CONTINUOUS
 62
    7
 10
41.688747682262544
 20
25.888379306189471
 11
41.613349282262519
 21
25.822825946189475
  0
LINE
  8
_0-1_地形
  6
CONTINUOUS
 62
    7
 10
41.613349282262519
 20
25.822825946189475
 11
41.557044262262551
 21
25.730555726189472
  0
LINE
  8
_0-1_地形
  6
CONTINUOUS
 62
    7
 10
41.557044262262551
 20
25.730555726189472
 11
41.486740762262528
 21
25.438597046189464
  0
LINE
  8
_0-1_地形
  6
CONTINUOUS
 62
    7
 10
41.486740762262528
 20
25.438597046189464
 11
41.38099124226251
 21
25.202740406189456
  0
LINE
  8
_0-1_地形
  6
CONTINUOUS
 62
    7
 10
41.38099124226251
 20
25.202740406189456
 11
41.25916448226252
 21
25.028996666189464
  0
LINE
  8
_0-1_地形
  6
CONTINUOUS
 62
    7
 10
41.25916448226252
 20
25.028996666189464
 11
41.129335822262568
 21
24.895706126189474
  0
LINE
  8
_0-1_地形
  6
CONTINUOUS
 62
    7
 10
41.129335822262568
 20
24.895706126189474
 11
40.988852242262546
 21
24.788428646189466
  0
LINE
  8
_0-1_地形
  6
CONTINUOUS
 62
    7
 10
40.988852242262546
 20
24.788428646189466
 11
39.640403062262521
 21
23.231482286189454
  0
LINE
  8
_0-1_地形
  6
CONTINUOUS
 62
    7
 10
39.773978182262525
 20
23.581561586189444
 11
39.870948562262527
 21
23.497675766189467
  0
LINE
  8
_0-1_地形
  6
CONTINUOUS
 62
    7
 10
39.658665142262556
 20
22.993386746189451
 11
39.768146842262524
 21
22.898676686189468
  0
LINE
  8
_0-1_地形
  6
CONTINUOUS
 62
    7
 10
39.900771322262543
 20
23.051986766189465
 11
39.85481624226253
 21
23.091741266189466
  0
LINE
  8
_0-1_地形
  6
CONTINUOUS
 62
    7
 10
39.768146842262524
 20
22.898676686189468
 11
39.900771322262543
 21
23.051986766189465
  0
LINE
  8
_0-1_地形
  6
CONTINUOUS
 62
    7
 10
39.85481624226253
 20
23.091741266189466
 11
40.062574942262529
 21
23.331905366189467
  0
LINE
  8
_0-1_地形
  6
CONTINUOUS
 62
    7
 10
39.404708602262531
 20
23.372828786189466
 11
39.505560082262548
 21
23.489410706189453
  0
LINE
  8
_0-1_地形
  6
CONTINUOUS
 62
    7
 10
39.505560082262548
 20
23.489410706189453
 11
39.613491382262545
 21
23.396041946189449
  0
LINE
  8
_0-1_地形
  6
CONTINUOUS
 62
    7
 10
39.613491382262545
 20
23.396041946189449
 11
39.773978182262525
 21
23.581561586189444
  0
LINE
  8
_0-1_地形
  6
CONTINUOUS
 62
    7
 10
39.500415202262559
 20
23.290036406189451
 11
39.404708602262531
 21
23.372828786189466
  0
LINE
  8
_0-1_地形
  6
CONTINUOUS
 62
    7
 10
39.962483362262518
 20
23.418491126189473
 11
40.062574942262529
 21
23.331905366189467
  0
LINE
  8
_0-1_地形
  6
CONTINUOUS
 62
    7
 10
38.568206602262535
 20
29.075728346189443
 11
40.04681594226254
 21
29.101378286189451
  0
LINE
  8
_0-1_地形
  6
CONTINUOUS
 62
    7
 10
40.04681594226254
 20
29.101378286189451
 11
40.072517902262533
 21
27.619793606189468
  0
LINE
  8
_0-1_地形
  6
CONTINUOUS
 62
    7
 10
40.072517902262533
 20
27.619793606189468
 11
38.59390958226254
 21
27.59414366618946
  0
LINE
  8
_0-1_地形
  6
CONTINUOUS
 62
    7
 10
38.59390958226254
 20
27.59414366618946
 11
38.568206602262535
 21
29.075728346189443
  0
LINE
  8
_0-1_地形
  6
CONTINUOUS
 62
    7
 10
39.53467292226253
 20
27.510569966189472
 11
39.547303582262543
 21
26.782446026189454
  0
LINE
  8
_0-1_地形
  6
CONTINUOUS
 62
    7
 10
39.135219502262544
 20
27.503640086189456
 11
39.138828262262521
 21
27.295591706189462
  0
LINE
  8
_0-1_地形
  6
CONTINUOUS
 62
    7
 10
39.138828262262521
 20
27.295591706189462
 11
38.49938720226254
 21
27.284499206189459
  0
LINE
  8
_0-1_地形
  6
CONTINUOUS
 62
    7
 10
38.49938720226254
 20
27.284499206189459
 11
38.28773006226254
 21
27.488937806189476
  0
LINE
  8
_0-1_地形
  6
CONTINUOUS
 62
    7
 10
38.28773006226254
 20
27.488937806189476
 11
38.25856214226252
 21
29.170249706189445
  0
LINE
  8
_0-1_地形
  6
CONTINUOUS
 62
    7
 10
38.25856214226252
 20
29.170249706189445
 11
38.463001762262536
 21
29.381907866189472
  0
LINE
  8
_0-1_地形
  6
CONTINUOUS
 62
    7
 10
38.463001762262536
 20
29.381907866189472
 11
39.102442822262518
 21
29.393000366189462
  0
LINE
  8
_0-1_地形
  6
CONTINUOUS
 62
    7
 10
39.102442822262518
 20
29.393000366189462
 11
39.106052602262537
 21
29.184951986189468
  0
LINE
  8
_0-1_地形
  6
CONTINUOUS
 62
    7
 10
38.468343502262542
 20
29.073995366189472
 11
38.566474642262563
 21
29.175591446189465
  0
LINE
  8
_0-1_地形
  6
CONTINUOUS
 62
    7
 10
38.566474642262563
 20
29.175591446189465
 11
40.045082962262541
 21
29.201242406189472
  0
LINE
  8
_0-1_地形
  6
CONTINUOUS
 62
    7
 10
40.045082962262541
 20
29.201242406189472
 11
40.146679042262534
 21
29.103111266189451
  0
LINE
  8
_0-1_地形
  6
CONTINUOUS
 62
    7
 10
40.146679042262534
 20
29.103111266189451
 11
40.172381002262526
 21
27.621526586189468
  0
LINE
  8
_0-1_地形
  6
CONTINUOUS
 62
    7
 10
40.172381002262526
 20
27.621526586189468
 11
40.074249862262548
 21
27.519930506189461
  0
LINE
  8
_0-1_地形
  6
CONTINUOUS
 62
    7
 10
40.074249862262548
 20
27.519930506189461
 11
38.595641542262527
 21
27.494279546189468
  0
LINE
  8
_0-1_地形
  6
CONTINUOUS
 62
    7
 10
38.595641542262527
 20
27.494279546189468
 11
38.494045462262591
 21
27.59241068618946
  0
LINE
  8
_0-1_地形
  6
CONTINUOUS
 62
    7
 10
38.494045462262591
 20
27.59241068618946
 11
38.468343502262542
 21
29.073995366189472
  0
LINE
  8
_0-1_地形
  6
CONTINUOUS
 62
    7
 10
39.505506022262537
 20
29.191881866189455
 11
39.501896242262546
 21
29.399930246189449
  0
LINE
  8
_0-1_地形
  6
CONTINUOUS
 62
    7
 10
39.501896242262546
 20
29.399930246189449
 11
40.449249802262557
 21
29.416364486189472
  0
LINE
  8
_0-1_地形
  6
CONTINUOUS
 62
    7
 10
40.449249802262557
 20
29.416364486189472
 11
41.438641642262553
 21
28.460714246189461
  0
LINE
  8
_0-1_地形
  6
CONTINUOUS
 62
    7
 10
41.438641642262553
 20
28.460714246189461
 11
40.87834034226254
 21
27.880631066189444
  0
LINE
  8
_0-1_地形
  6
CONTINUOUS
 62
    7
 10
40.87834034226254
 20
27.880631066189444
 11
40.422817522262562
 21
28.320619286189462
  0
LINE
  8
_0-1_地形
  6
CONTINUOUS
 62
    7
 10
40.422817522262562
 20
28.320619286189462
 11
40.276839202262558
 21
28.318086626189448
  0
LINE
  8
_0-1_地形
  6
CONTINUOUS
 62
    7
 10
40.276839202262558
 20
28.318086626189448
 11
40.283691562262518
 21
27.923137526189457
  0
LINE
  8
_0-1_地形
  6
CONTINUOUS
 62
    7
 10
40.283691562262518
 20
27.923137526189457
 11
40.639276822262516
 21
27.579679046189447
  0
LINE
  8
_0-1_地形
  6
CONTINUOUS
 62
    7
 10
40.639276822262516
 20
27.579679046189447
 11
40.385771122262511
 21
27.317223866189458
  0
LINE
  8
_0-1_地形
  6
CONTINUOUS
 62
    7
 10
40.385771122262511
 20
27.317223866189458
 11
39.538281682262507
 21
27.302521586189464
  0
LINE
  8
_0-1_地形
  6
CONTINUOUS
 62
    7
 10
39.538281682262507
 20
27.302521586189464
 11
39.959190802262526
 21
27.309822746189447
  0
LINE
  8
_0-1_地形
  6
CONTINUOUS
 62
    7
 10
39.959190802262526
 20
27.309822746189447
 11
39.976277842262562
 21
26.324887286189458
  0
LINE
  8
_0-1_地形
  6
CONTINUOUS
 62
    7
 10
39.976277842262562
 20
26.324887286189458
 11
39.555368722262564
 21
26.317586126189447
  0
LINE
  8
_0-1_地形
  6
CONTINUOUS
 62
    7
 10
39.555368722262564
 20
26.317586126189447
 11
39.538281682262507
 21
27.302521586189464
  0
LINE
  8
_0-1_地形
  6
CONTINUOUS
 62
    7
 10
40.67485544226254
 20
26.136770726189461
 11
41.018983042262519
 21
26.142740786189457
  0
LINE
  8
_0-1_地形
  6
CONTINUOUS
 62
    7
 10
41.018983042262519
 20
26.142740786189457
 11
41.007344842262526
 21
26.813642726189464
  0
LINE
  8
_0-1_地形
  6
CONTINUOUS
 62
    7
 10
41.007344842262526
 20
26.813642726189464
 11
40.663217242262533
 21
26.807672666189454
  0
LINE
  8
_0-1_地形
  6
CONTINUOUS
 62
    7
 10
40.663217242262533
 20
26.807672666189454
 11
40.67485544226254
 21
26.136770726189461
  0
LINE
  8
_0-1_地形
  6
CONTINUOUS
 62
    7
 10
40.663217242262533
 20
26.807672666189454
 11
40.655835502262519
 21
27.233172806189465
  0
LINE
  8
_0-1_地形
  6
CONTINUOUS
 62
    7
 10
40.655835502262519
 20
27.233172806189465
 11
41.553928162262537
 21
28.217475866189453
  0
LINE
  8
_0-1_地形
  6
CONTINUOUS
 62
    7
 10
41.553928162262537
 20
28.217475866189453
 11
41.839402702262532
 21
28.135685126189465
  0
LINE
  8
_0-1_地形
  6
CONTINUOUS
 62
    7
 10
41.839402702262532
 20
28.135685126189465
 11
42.065353102262556
 21
27.941613806189444
  0
LINE
  8
_0-1_地形
  6
CONTINUOUS
 62
    7
 10
42.065353102262556
 20
27.941613806189444
 11
42.191391442262514
 21
27.690291926189467
  0
LINE
  8
_0-1_地形
  6
CONTINUOUS
 62
    7
 10
42.044463502262523
 20
30.305791226189463
 11
41.875939102262521
 21
30.302867906189455
  0
LINE
  8
_0-1_地形
  6
CONTINUOUS
 62
    7
 10
41.875939102262521
 20
30.302867906189455
 11
41.220440182262521
 21
29.580036746189457
  0
LINE
  8
_0-1_地形
  6
CONTINUOUS
 62
    7
 10
41.220440182262521
 20
29.580036746189457
 11
41.803405882262552
 21
28.883484866189455
  0
LINE
  8
_0-1_地形
  6
CONTINUOUS
 62
    7
 10
41.803405882262552
 20
28.883484866189455
 11
42.127345642262526
 21
28.889105066189451
  0
CIRCLE
  8
_0-1_地形
  6
CONTINUOUS
 62
    7
 10
36.488570422262526
 20
29.316036266189464
 40
0.15038676
  0
CIRCLE
  8
_0-1_地形
  6
CONTINUOUS
 62
    7
 10
36.488570422262526
 20
29.316036266189464
 40
0.5753748599999999
  0
LINE
  8
_0-1_地形
  6
CONTINUOUS
 62
    7
 10
36.057118582262547
 20
29.696701286189459
 11
35.636553202262533
 21
30.256838366189463
  0
LINE
  8
_0-1_地形
  6
CONTINUOUS
 62
    7
 10
35.94322334226257
 20
29.848393646189457
 11
35.768268862262573
 21
29.717033966189454
  0
LINE
  8
_0-1_地形
  6
CONTINUOUS
 62
    7
 10
35.461597702262523
 20
30.125478686189446
 11
35.636553202262533
 21
30.256838366189463
  0
LINE
  8
_0-1_地形
  6
CONTINUOUS
 62
    7
 10
35.604070282262526
 20
29.935724006189467
 11
35.779024762262523
 21
30.067084706189455
  0
LINE
  8
_0-1_地形
  6
CONTINUOUS
 62
    7
 10
38.263033822262571
 20
28.567348106189478
 11
37.869950302262566
 21
28.566786086189474
  0
LINE
  8
_0-1_地形
  6
CONTINUOUS
 62
    7
 10
37.869950302262566
 20
28.566786086189474
 11
37.360680622262578
 21
29.245064666189457
  0
LINE
  8
_0-1_地形
  6
CONTINUOUS
 62
    7
 10
37.360680622262578
 20
29.245064666189457
 11
37.055070262262532
 21
29.21536430618945
  0
LINE
  8
_0-1_地形
  6
CONTINUOUS
 62
    7
 10
36.646936642262574
 20
28.810028546189464
 11
36.924832582262582
 21
28.439908286189457
  0
LINE
  8
_0-1_地形
  6
CONTINUOUS
 62
    7
 10
36.924832582262582
 20
28.439908286189457
 11
37.234918702262533
 21
28.280341526189453
  0
LINE
  8
_0-1_地形
  6
CONTINUOUS
 62
    7
 10
37.234918702262533
 20
28.280341526189453
 11
37.518631702262553
 21
28.055634506189442
  0
LINE
  8
_0-1_地形
  6
CONTINUOUS
 62
    7
 10
37.518631702262553
 20
28.055634506189442
 11
37.746440542262533
 21
27.785682326189452
  0
LINE
  8
_0-1_地形
  6
CONTINUOUS
 62
    7
 10
37.746440542262533
 20
27.785682326189452
 11
37.923391162262533
 21
27.460740926189466
  0
LINE
  8
_0-1_地形
  6
CONTINUOUS
 62
    7
 10
37.923391162262533
 20
27.460740926189466
 11
38.053194322262542
 21
27.066473186189462
  0
LINE
  8
_0-1_地形
  6
CONTINUOUS
 62
    7
 10
38.053194322262542
 20
27.066473186189462
 11
38.221447402262527
 21
26.835171866189462
  0
LINE
  8
_0-1_地形
  6
CONTINUOUS
 62
    7
 10
38.221447402262527
 20
26.835171866189462
 11
38.514138442262549
 21
26.647609166189461
  0
LINE
  8
_0-1_地形
  6
CONTINUOUS
 62
    7
 10
38.514138442262549
 20
26.647609166189461
 11
38.895270622262537
 21
26.594263166189457
  0
LINE
  8
_0-1_地形
  6
CONTINUOUS
 62
    7
 10
38.895270622262537
 20
26.594263166189457
 11
39.184933282262534
 21
26.672396186189467
  0
LINE
  8
_0-1_地形
  6
CONTINUOUS
 62
    7
 10
39.184933282262534
 20
26.672396186189467
 11
39.345804622262563
 21
26.881152446189439
  0
LINE
  8
_0-1_地形
  6
CONTINUOUS
 62
    7
 10
39.345804622262563
 20
26.881152446189439
 11
39.334945702262566
 21
27.507105026189471
  0
LINE
  8
_0-1_地形
  6
CONTINUOUS
 62
    7
 10
31.667546542262546
 20
30.535066826189471
 11
32.434232602262526
 21
30.717428546189446
  0
LINE
  8
_0-1_地形
  6
CONTINUOUS
 62
    7
 10
32.434232602262526
 20
30.717428546189446
 11
32.535064702262559
 21
30.29350940618945
  0
LINE
  8
_0-1_地形
  6
CONTINUOUS
 62
    7
 10
32.535064702262559
 20
30.29350940618945
 11
31.768378642262576
 21
30.111147686189447
  0
LINE
  8
_0-1_地形
  6
CONTINUOUS
 62
    7
 10
31.768378642262576
 20
30.111147686189447
 11
31.667546542262546
 21
30.535066826189471
  0
LINE
  8
_0-1_地形
  6
CONTINUOUS
 62
    7
 10
5.9245784622625592
 20
28.032313226189451
 11
6.4335462222625779
 21
28.656403286189452
  0
LINE
  8
_0-1_地形
  6
CONTINUOUS
 62
    7
 10
6.4335462222625779
 20
28.656403286189452
 11
6.7556285622625483
 21
29.189820446189465
  0
LINE
  8
_0-1_地形
  6
CONTINUOUS
 62
    7
 10
6.7556285622625483
 20
29.189820446189465
 11
6.9993198222625397
 21
29.863899686189448
  0
LINE
  8
_0-1_地形
  6
CONTINUOUS
 62
    7
 10
6.9993198222625397
 20
29.863899686189448
 11
7.1518343022625572
 21
30.534030506189445
  0
LINE
  8
_0-1_地形
  6
CONTINUOUS
 62
    7
 10
4.1243009022625374
 20
28.790171186189447
 11
4.2687879822625518
 21
28.594623926189463
  0
LINE
  8
_0-1_地形
  6
CONTINUOUS
 62
    7
 10
4.2687879822625518
 20
28.594623926189463
 11
4.4424123822626029
 21
28.722912386189471
  0
LINE
  8
_0-1_地形
  6
CONTINUOUS
 62
    7
 10
4.4424123822626029
 20
28.722912386189471
 11
4.2979242822625565
 21
28.918459646189454
  0
LINE
  8
_0-1_地形
  6
CONTINUOUS
 62
    7
 10
4.2979242822625565
 20
28.918459646189454
 11
4.1243009022625374
 21
28.790171186189447
  0
LINE
  8
_0-1_地形
  6
CONTINUOUS
 62
    7
 10
3.4343025222625556
 20
28.761366386189472
 11
3.5938080822625693
 21
28.649617226189442
  0
LINE
  8
_0-1_地形
  6
CONTINUOUS
 62
    7
 10
3.5938080822625693
 20
28.649617226189442
 11
3.7571743422625445
 21
28.591389506189451
  0
LINE
  8
_0-1_地形
  6
CONTINUOUS
 62
    7
 10
4.0478325222625244
 20
28.59060104618947
 11
4.2251544222625244
 21
28.653676826189461
  0
LINE
  8
_0-1_地形
  6
CONTINUOUS
 62
    7
 10
3.109443742262556
 20
28.348936526189455
 11
3.295273462262533
 21
28.220209466189452
  0
LINE
  8
_0-1_地形
  6
CONTINUOUS
 62
    7
 10
4.5976349622625889
 20
28.430748686189453
 11
4.6964903022625322
 21
28.612396406189468
  0
LINE
  8
_0-1_地形
  6
CONTINUOUS
 62
    7
 10
4.6964903022625322
 20
28.612396406189468
 11
4.6981988022625387
 21
28.797746726189452
  0
LINE
  8
_0-1_地形
  6
CONTINUOUS
 62
    7
 10
4.6981988022625387
 20
28.797746726189452
 11
4.5941118822625526
 21
28.955792666189446
  0
LINE
  8
_0-1_地形
  6
CONTINUOUS
 62
    7
 10
4.5941118822625526
 20
28.955792666189446
 11
4.4496095022625468
 21
29.04163994618947
  0
LINE
  8
_0-1_地形
  6
CONTINUOUS
 62
    7
 10
4.4496095022625468
 20
29.04163994618947
 11
4.2439020222625459
 21
29.076215906189454
  0
LINE
  8
_0-1_地形
  6
CONTINUOUS
 62
    7
 10
4.2439020222625459
 20
29.076215906189454
 11
4.0215430422625404
 21
29.061493226189462
  0
LINE
  8
_0-1_地形
  6
CONTINUOUS
 62
    7
 10
28.207449502262534
 20
30.489428966189458
 11
28.46067062226253
 21
30.261658886189444
  0
LINE
  8
_0-1_地形
  6
CONTINUOUS
 62
    7
 10
28.46067062226253
 20
30.261658886189444
 11
28.750351642262519
 21
30.115544906189449
  0
LINE
  8
_0-1_地形
  6
CONTINUOUS
 62
    7
 10
28.750351642262519
 20
30.115544906189449
 11
29.709518842262543
 21
31.071019706189468
  0
LINE
  8
_0-1_地形
  6
CONTINUOUS
 62
    7
 10
24.53703254226258
 20
31.146648626189453
 11
24.158951182262513
 21
30.762495206189449
  0
LINE
  8
_0-1_地形
  6
CONTINUOUS
 62
    7
 10
24.158951182262513
 20
30.762495206189449
 11
23.769663082262525
 21
30.491684186189453
  0
LINE
  8
_0-1_地形
  6
CONTINUOUS
 62
    7
 10
23.769663082262525
 20
30.491684186189453
 11
23.340547042262585
 21
30.191552246189467
  0
LINE
  8
_0-1_地形
  6
CONTINUOUS
 62
    7
 10
23.340547042262585
 20
30.191552246189467
 11
22.955952982262545
 21
29.934400046189445
  0
LINE
  8
_0-1_地形
  6
CONTINUOUS
 62
    7
 10
22.955952982262545
 20
29.934400046189445
 11
18.719891962262579
 21
27.980324846189468
  0
LINE
  8
_0-1_地形
  6
CONTINUOUS
 62
    7
 10
18.954651082262519
 20
27.513713606189448
 11
24.413850202262552
 21
30.017902346189466
  0
LINE
  8
_0-1_地形
  6
CONTINUOUS
 62
    7
 10
24.413850202262552
 20
30.017902346189466
 11
25.191639982262547
 21
30.463534226189459
  0
LINE
  8
_0-1_地形
  6
CONTINUOUS
 62
    7
 10
25.191639982262547
 20
30.463534226189459
 11
25.691765362262533
 21
30.802368026189463
  0
LINE
  8
_0-1_地形
  6
CONTINUOUS
 62
    7
 10
9.2552579022625423
 20
30.880411286189464
 11
9.0665201622625382
 21
30.542200706189469
  0
LINE
  8
_0-1_地形
  6
CONTINUOUS
 62
    7
 10
9.0665201622625382
 20
30.542200706189469
 11
8.7280505022625512
 21
30.155884886189476
  0
LINE
  8
_0-1_地形
  6
CONTINUOUS
 62
    7
 10
8.7280505022625512
 20
30.155884886189476
 11
8.3114682222625333
 21
29.820076406189465
  0
LINE
  8
_0-1_地形
  6
CONTINUOUS
 62
    7
 10
8.3114682222625333
 20
29.820076406189465
 11
7.306913062262538
 21
29.222267666189474
  0
LINE
  8
_0-1_地形
  6
CONTINUOUS
 62
    7
 10
7.306913062262538
 20
29.222267666189474
 11
7.2551725422625282
 21
29.373270506189449
  0
LINE
  8
_0-1_地形
  6
CONTINUOUS
 62
    7
 10
7.2551725422625282
 20
29.373270506189449
 11
7.2482130822625663
 21
29.605471466189464
  0
LINE
  8
_0-1_地形
  6
CONTINUOUS
 62
    7
 10
7.2482130822625663
 20
29.605471466189464
 11
7.323869542262571
 21
29.889663866189444
  0
LINE
  8
_0-1_地形
  6
CONTINUOUS
 62
    7
 10
7.323869542262571
 20
29.889663866189444
 11
7.4549619822625459
 21
30.48014084618945
  0
LINE
  8
_0-1_地形
  6
CONTINUOUS
 62
    7
 10
7.4549619822625459
 20
30.48014084618945
 11
7.5358469622625535
 21
31.097857946189457
  0
LINE
  8
_0-1_地形
  6
CONTINUOUS
 62
    7
 10
35.927027782262542
 20
16.332735746189464
 11
36.684214582262541
 21
17.009364986189475
  0
LINE
  8
_0-1_地形
  6
CONTINUOUS
 62
    7
 10
36.684214582262541
 20
17.009364986189475
 11
37.496055022262524
 21
17.721188306189454
  0
LINE
  8
_0-1_地形
  6
CONTINUOUS
 62
    7
 10
37.496055022262524
 20
17.721188306189454
 11
38.073291382262539
 21
18.172687226189446
  0
LINE
  8
_0-1_地形
  6
CONTINUOUS
 62
    7
 10
38.073291382262539
 20
18.172687226189446
 11
38.902966522262545
 21
18.752306306189475
  0
LINE
  8
_0-1_地形
  6
CONTINUOUS
 62
    7
 10
38.902966522262545
 20
18.752306306189475
 11
39.630338722262536
 21
19.200319886189455
  0
LINE
  8
_0-1_地形
  6
CONTINUOUS
 62
    7
 10
39.630338722262536
 20
19.200319886189455
 11
41.773440322262537
 21
20.537580686189465
  0
LINE
  8
_0-1_地形
  6
CONTINUOUS
 62
    7
 10
41.773440322262537
 20
20.537580686189465
 11
41.983152322262562
 21
20.662184906189445
  0
LINE
  8
_0-1_地形
  6
CONTINUOUS
 62
    7
 10
41.983152322262562
 20
20.662184906189445
 11
42.115638082262571
 21
20.794038266189439
  0
LINE
  8
_0-1_地形
  6
CONTINUOUS
 62
    7
 10
42.115638082262571
 20
20.794038266189439
 11
42.219555682262538
 21
20.967782006189459
  0
LINE
  8
_0-1_地形
  6
CONTINUOUS
 62
    7
 10
42.219555682262538
 20
20.967782006189459
 11
42.253984762262533
 21
21.101252066189467
  0
LINE
  8
_0-1_地形
  6
CONTINUOUS
 62
    7
 10
36.932370382262548
 20
20.635221206189449
 11
36.187241002262567
 21
20.124444986189438
  0
LINE
  8
_0-1_地形
  6
CONTINUOUS
 62
    7
 10
36.187241002262567
 20
20.124444986189438
 11
36.120125002262569
 21
20.222354786189449
  0
LINE
  8
_0-1_地形
  6
CONTINUOUS
 62
    7
 10
36.120125002262569
 20
20.222354786189449
 11
36.865254382262549
 21
20.73313100618946
  0
LINE
  8
_0-1_地形
  6
CONTINUOUS
 62
    7
 10
37.506006142262549
 20
20.112901646189449
 11
37.359333202262519
 21
20.012359226189467
  0
LINE
  8
_0-1_地形
  6
CONTINUOUS
 62
    7
 10
37.359333202262519
 20
20.012359226189467
 11
36.805091722262546
 21
20.820897926189467
  0
LINE
  8
_0-1_地形
  6
CONTINUOUS
 62
    7
 10
36.805091722262546
 20
20.820897926189467
 11
36.891941662262525
 21
20.880432266189466
  0
LINE
  8
_0-1_地形
  6
CONTINUOUS
 62
    7
 10
36.891941662262525
 20
20.880432266189466
 11
37.257869722262569
 21
20.346610166189457
  0
LINE
  8
_0-1_地形
  6
CONTINUOUS
 62
    7
 10
37.257869722262569
 20
20.346610166189457
 11
37.317692722262521
 21
20.387617226189455
  0
LINE
  8
_0-1_地形
  6
CONTINUOUS
 62
    7
 10
37.317692722262521
 20
20.387617226189455
 11
37.506006142262549
 21
20.112901646189449
  0
LINE
  8
_0-1_地形
  6
CONTINUOUS
 62
    7
 10
37.414174522262513
 20
20.246867426189446
 11
37.666156342262582
 21
20.199847466189446
  0
LINE
  8
_0-1_地形
  6
CONTINUOUS
 62
    7
 10
37.666156342262582
 20
20.199847466189446
 11
37.845511102262549
 21
20.322792146189464
  0
LINE
  8
_0-1_地形
  6
CONTINUOUS
 62
    7
 10
37.845511102262549
 20
20.322792146189464
 11
37.917120202262538
 21
20.218326806189474
  0
LINE
  8
_0-1_地形
  6
CONTINUOUS
 62
    7
 10
37.917120202262538
 20
20.218326806189474
 11
37.708266022262535
 21
20.075159606189452
  0
LINE
  8
_0-1_地形
  6
CONTINUOUS
 62
    7
 10
37.708266022262535
 20
20.075159606189452
 11
37.506006142262549
 21
20.112901646189449
  0
LINE
  8
_0-1_地形
  6
CONTINUOUS
 62
    7
 10
36.644125522262541
 20
20.584019246189463
 11
36.585114442262523
 21
20.670106226189453
  0
LINE
  8
_0-1_地形
  6
CONTINUOUS
 62
    7
 10
36.585114442262523
 20
20.670106226189453
 11
36.507829042262586
 21
20.617128446189447
  0
LINE
  8
_0-1_地形
  6
CONTINUOUS
 62
    7
 10
36.507829042262586
 20
20.617128446189447
 11
36.39310352226255
 21
20.784492086189452
  0
LINE
  8
_0-1_地形
  6
CONTINUOUS
 62
    7
 10
36.39310352226255
 20
20.784492086189452
 11
36.314967442262571
 21
20.730929846189447
  0
LINE
  8
_0-1_地形
  6
CONTINUOUS
 62
    7
 10
36.314967442262571
 20
20.730929846189447
 11
36.48985562226251
 21
20.475799286189464
  0
LINE
  8
_0-1_地形
  6
CONTINUOUS
 62
    7
 10
36.952105342262541
 20
20.792665346189459
 11
37.339844062262557
 21
21.058454906189475
  0
LINE
  8
_0-1_地形
  6
CONTINUOUS
 62
    7
 10
37.339844062262557
 20
21.058454906189475
 11
37.406960062262513
 21
20.960545106189464
  0
LINE
  8
_0-1_地形
  6
CONTINUOUS
 62
    7
 10
37.406960062262513
 20
20.960545106189464
 11
37.01922134226254
 21
20.694755546189462
  0
LINE
  8
_0-1_地形
  6
CONTINUOUS
 62
    7
 10
37.359333202262519
 20
20.012359226189467
 11
37.224923722262545
 21
20.037440006189449
  0
LINE
  8
_0-1_地形
  6
CONTINUOUS
 62
    7
 10
37.224923722262545
 20
20.037440006189449
 11
36.983933422262524
 21
19.872244886189442
  0
LINE
  8
_0-1_地形
  6
CONTINUOUS
 62
    7
 10
36.983933422262524
 20
19.872244886189442
 11
36.882045622262524
 21
20.02088234618946
  0
LINE
  8
_0-1_地形
  6
CONTINUOUS
 62
    7
 10
36.882045622262524
 20
20.02088234618946
 11
37.198381282262574
 21
20.237726186189455
  0
LINE
  8
_0-1_地形
  6
CONTINUOUS
 62
    7
 10
38.141911882262548
 20
20.723142146189453
 11
37.858060162262575
 21
21.137228486189464
  0
ARC
  8
_0-1_地形
  6
CONTINUOUS
 62
    7
 10
37.994969662262577
 20
20.926746386189457
 40
0.2510913599999999
 50
123.04214334146199
 51
305.81805855399199
  0
LINE
  8
_0-1_地形
  6
CONTINUOUS
 62
    7
 10
37.717670422262529
 20
20.432329946189448
 11
37.433819722262527
 21
20.846417306189458
  0
ARC
  8
_0-1_地形
  6
CONTINUOUS
 62
    7
 10
37.580760922262542
 20
20.642812046189455
 40
0.2510913599999999
 50
303.04214334140698
 51
125.818058554079
  0
LINE
  8
_0-1_地形
  6
CONTINUOUS
 62
    7
 10
26.31935708226257
 20
30.88323668618947
 11
25.984286062262527
 21
30.60752660618946
  0
LINE
  8
_0-1_地形
  6
CONTINUOUS
 62
    7
 10
25.984286062262527
 20
30.60752660618946
 11
25.417046722262569
 21
30.176527646189449
  0
LINE
  8
_0-1_地形
  6
CONTINUOUS
 62
    7
 10
25.417046722262569
 20
30.176527646189449
 11
25.10449526226256
 21
29.965107146189474
  0
LINE
  8
_0-1_地形
  6
CONTINUOUS
 62
    7
 10
25.10449526226256
 20
29.965107146189474
 11
24.370043242262568
 21
29.595238826189465
  0
LINE
  8
_0-1_地形
  6
CONTINUOUS
 62
    7
 10
24.370043242262568
 20
29.595238826189465
 11
23.571995242262517
 21
29.239424066189464
  0
LINE
  8
_0-1_地形
  6
CONTINUOUS
 62
    7
 10
23.571995242262517
 20
29.239424066189464
 11
21.207458782262563
 21
28.184822606189449
  0
LINE
  8
_0-1_地形
  6
CONTINUOUS
 62
    7
 10
28.187159662262559
 20
28.190387726189464
 11
28.307093302262558
 21
28.75166618618946
  0
LINE
  8
_0-1_地形
  6
CONTINUOUS
 62
    7
 10
28.307093302262558
 20
28.75166618618946
 11
28.295671342262551
 21
29.166665426189446
  0
LINE
  8
_0-1_地形
  6
CONTINUOUS
 62
    7
 10
28.295671342262551
 20
29.166665426189446
 11
28.161493402262579
 21
29.680875986189456
  0
LINE
  8
_0-1_地形
  6
CONTINUOUS
 62
    7
 10
28.161493402262579
 20
29.680875986189456
 11
27.895282582262514
 21
30.077131706189455
  0
LINE
  8
_0-1_地形
  6
CONTINUOUS
 62
    7
 10
27.895282582262514
 20
30.077131706189455
 11
27.480146662262541
 21
30.619007726189459
  0
LINE
  8
_0-1_地形
  6
CONTINUOUS
 62
    7
 10
35.173356922262542
 20
15.924627626189471
 11
35.754815062262594
 21
16.513711286189455
  0
LINE
  8
_0-1_地形
  6
CONTINUOUS
 62
    7
 10
35.754815062262594
 20
16.513711286189455
 11
36.51871244226254
 21
17.196337106189453
  0
LINE
  8
_0-1_地形
  6
CONTINUOUS
 62
    7
 10
36.51871244226254
 20
17.196337106189453
 11
37.336702462262522
 21
17.913553166189438
  0
LINE
  8
_0-1_地形
  6
CONTINUOUS
 62
    7
 10
37.336702462262522
 20
17.913553166189438
 11
37.92476510226254
 21
18.373519106189455
  0
LINE
  8
_0-1_地形
  6
CONTINUOUS
 62
    7
 10
37.92476510226254
 20
18.373519106189455
 11
38.765877502262541
 21
18.961128866189462
  0
LINE
  8
_0-1_地形
  6
CONTINUOUS
 62
    7
 10
38.765877502262541
 20
18.961128866189462
 11
39.49877096226254
 21
19.41254210618947
  0
LINE
  8
_0-1_地形
  6
CONTINUOUS
 62
    7
 10
39.49877096226254
 20
19.41254210618947
 11
41.643560662262566
 21
20.750856566189462
  0
LINE
  8
_0-1_地形
  6
CONTINUOUS
 62
    7
 10
41.643560662262566
 20
20.750856566189462
 11
41.828972182262532
 21
20.86102268618945
  0
LINE
  8
_0-1_地形
  6
CONTINUOUS
 62
    7
 10
41.828972182262532
 20
20.86102268618945
 11
41.98155908226255
 21
20.945618426189462
  0
LINE
  8
_0-1_地形
  6
CONTINUOUS
 62
    7
 10
41.98155908226255
 20
20.945618426189462
 11
42.136632742262535
 21
21.029347166189474
  0
LINE
  8
_0-1_地形
  6
CONTINUOUS
 62
    7
 10
42.136632742262535
 20
21.029347166189474
 11
42.253984762262533
 21
21.101252066189467
  0
LINE
  8
_0-1_地形
  6
CONTINUOUS
 62
    7
 10
6.7636253622625304
 20
28.564676726189454
 11
6.9950939622625583
 21
28.743783626189447
  0
LINE
  8
_0-1_地形
  6
CONTINUOUS
 62
    7
 10
6.9950939622625583
 20
28.743783626189447
 11
7.2775901022625549
 21
28.894598786189455
  0
LINE
  8
_0-1_地形
  6
CONTINUOUS
 62
    7
 10
7.2775901022625549
 20
28.894598786189455
 11
7.5548720022625275
 21
29.027368106189464
  0
LINE
  8
_0-1_地形
  6
CONTINUOUS
 62
    7
 10
7.5548720022625275
 20
29.027368106189464
 11
7.8492735822625832
 21
29.185436486189452
  0
LINE
  8
_0-1_地形
  6
CONTINUOUS
 62
    7
 10
7.8492735822625832
 20
29.185436486189452
 11
8.3909078622625657
 21
29.527195646189462
  0
LINE
  8
_0-1_地形
  6
CONTINUOUS
 62
    7
 10
8.3909078622625657
 20
29.527195646189462
 11
8.9067708222625583
 21
29.924135786189446
  0
LINE
  8
_0-1_地形
  6
CONTINUOUS
 62
    7
 10
8.9067708222625583
 20
29.924135786189446
 11
9.1925330022625644
 21
30.268055306189446
  0
LINE
  8
_0-1_地形
  6
CONTINUOUS
 62
    7
 10
9.1925330022625644
 20
30.268055306189446
 11
9.4106538822625794
 21
30.597389846189451
  0
LINE
  8
_0-1_地形
  6
CONTINUOUS
 62
    7
 10
9.4106538822625794
 20
30.597389846189451
 11
9.5667291822625771
 21
30.888837506189468
  0
LINE
  8
_0-1_地形
  6
CONTINUOUS
 62
    7
 10
9.939640162262549
 20
31.103622986189457
 11
9.8706024822625587
 21
30.838971746189465
  0
LINE
  8
_0-1_地形
  6
CONTINUOUS
 62
    7
 10
9.8706024822625587
 20
30.838971746189465
 11
9.7739289222625416
 21
30.577111226189452
  0
LINE
  8
_0-1_地形
  6
CONTINUOUS
 62
    7
 10
9.7739289222625416
 20
30.577111226189452
 11
9.6082023822625224
 21
30.239897186189459
  0
LINE
  8
_0-1_地形
  6
CONTINUOUS
 62
    7
 10
9.6082023822625224
 20
30.239897186189459
 11
9.3758474022625364
 21
29.940844406189463
  0
LINE
  8
_0-1_地形
  6
CONTINUOUS
 62
    7
 10
9.3758474022625364
 20
29.940844406189463
 11
9.1169265222625491
 21
29.637121046189456
  0
LINE
  8
_0-1_地形
  6
CONTINUOUS
 62
    7
 10
9.1169265222625491
 20
29.637121046189456
 11
8.8042434822625246
 21
29.402556746189454
  0
LINE
  8
_0-1_地形
  6
CONTINUOUS
 62
    7
 10
8.8042434822625246
 20
29.402556746189454
 11
8.3288571822625563
 21
29.133795926189471
  0
LINE
  8
_0-1_地形
  6
CONTINUOUS
 62
    7
 10
8.3288571822625563
 20
29.133795926189471
 11
7.866258622262535
 21
28.872264866189461
  0
LINE
  8
_0-1_地形
  6
CONTINUOUS
 62
    7
 10
7.866258622262535
 20
28.872264866189461
 11
7.5203072622625387
 21
28.642204886189468
  0
LINE
  8
_0-1_地形
  6
CONTINUOUS
 62
    7
 10
7.5203072622625387
 20
28.642204886189468
 11
7.2229854222625436
 21
28.377062006189441
  0
LINE
  8
_0-1_地形
  6
CONTINUOUS
 62
    7
 10
29.575869262262529
 20
16.375024946189463
 11
29.707738942262552
 21
16.889881166189461
  0
LINE
  8
_0-1_地形
  6
CONTINUOUS
 62
    7
 10
29.707738942262552
 20
16.889881166189461
 11
29.958466162262539
 21
17.269104926189449
  0
LINE
  8
_0-1_地形
  6
CONTINUOUS
 62
    7
 10
29.958466162262539
 20
17.269104926189449
 11
30.415378222262536
 21
17.609362646189446
  0
LINE
  8
_0-1_地形
  6
CONTINUOUS
 62
    7
 10
30.415378222262536
 20
17.609362646189446
 11
31.057628362262562
 21
17.821210526189454
  0
LINE
  8
_0-1_地形
  6
CONTINUOUS
 62
    7
 10
31.057628362262562
 20
17.821210526189454
 11
31.648021702262515
 21
18.076440026189452
  0
LINE
  8
_0-1_地形
  6
CONTINUOUS
 62
    7
 10
31.648021702262515
 20
18.076440026189452
 11
32.262977662262585
 21
18.450007886189447
  0
LINE
  8
_0-1_地形
  6
CONTINUOUS
 62
    7
 10
32.262977662262585
 20
18.450007886189447
 11
32.907392242262574
 21
18.997507166189457
  0
LINE
  8
_0-1_地形
  6
CONTINUOUS
 62
    7
 10
32.717194882262561
 20
19.17559916618945
 11
32.193001582262539
 21
18.704301026189462
  0
LINE
  8
_0-1_地形
  6
CONTINUOUS
 62
    7
 10
32.193001582262539
 20
18.704301026189462
 11
31.677669022262535
 21
18.372030926189446
  0
LINE
  8
_0-1_地形
  6
CONTINUOUS
 62
    7
 10
31.677669022262535
 20
18.372030926189446
 11
31.117767562262543
 21
18.119261666189466
  0
LINE
  8
_0-1_地形
  6
CONTINUOUS
 62
    7
 10
31.117767562262543
 20
18.119261666189466
 11
30.66950816226252
 21
17.984027006189457
  0
LINE
  8
_0-1_地形
  6
CONTINUOUS
 62
    7
 10
30.66950816226252
 20
17.984027006189457
 11
30.164389882262526
 21
17.777804426189455
  0
LINE
  8
_0-1_地形
  6
CONTINUOUS
 62
    7
 10
30.164389882262526
 20
17.777804426189455
 11
29.765624962262525
 21
17.445906626189462
  0
LINE
  8
_0-1_地形
  6
CONTINUOUS
 62
    7
 10
29.765624962262525
 20
17.445906626189462
 11
29.472499402262542
 21
16.989702446189447
  0
LINE
  8
_0-1_地形
  6
CONTINUOUS
 62
    7
 10
29.472499402262542
 20
16.989702446189447
 11
29.340813322262534
 21
16.524272366189471
  0
LINE
  8
_0-1_地形
  6
CONTINUOUS
 62
    7
 10
3.553709842262549
 20
25.653138746189448
 11
4.0374030222625379
 21
26.139001466189448
  0
LINE
  8
_0-1_地形
  6
CONTINUOUS
 62
    7
 10
3.295273462262533
 20
28.220209466189452
 11
3.5916671022625524
 21
28.142689466189459
  0
LINE
  8
_0-1_地形
  6
CONTINUOUS
 62
    7
 10
3.7620050622625358
 20
25.407006626189464
 11
3.4739172822625619
 21
25.149737126189457
  0
LINE
  8
_0-1_地形
  6
CONTINUOUS
 62
    7
 10
3.7143588222625681
 20
24.958767626189477
 11
3.4712438622625541
 21
24.850838366189457
  0
LINE
  8
_0-1_地形
  6
CONTINUOUS
 62
    7
 10
3.7571743422625445
 20
28.591389506189451
 11
3.94439840226255
 21
28.576616846189459
  0
LINE
  8
_0-1_地形
  6
CONTINUOUS
 62
    7
 10
3.94439840226255
 20
28.576616846189459
 11
4.0478325222625244
 21
28.59060104618947
  0
LINE
  8
_0-1_地形
  6
CONTINUOUS
 62
    7
 10
4.3920845622625393
 20
28.282190786189453
 11
4.5976349622625889
 21
28.430748686189453
  0
LINE
  8
_0-1_地形
  6
CONTINUOUS
 62
    7
 10
6.4341398622625166
 20
28.08664964618945
 11
6.7636253622625304
 21
28.564676726189454
  0
LINE
  8
_0-1_地形
  6
CONTINUOUS
 62
    7
 10
7.2229854222625436
 20
28.377062006189441
 11
6.6555859422625758
 21
27.871071626189469
  0
LINE
  8
_0-1_地形
  6
CONTINUOUS
 62
    7
 10
27.220158862262565
 20
25.005252086189465
 11
27.194751682262524
 21
24.67009742618945
  0
LINE
  8
_0-1_地形
  6
CONTINUOUS
 62
    7
 10
27.194751682262524
 20
24.67009742618945
 11
27.36797930226254
 21
24.370737626189459
  0
LINE
  8
_0-1_地形
  6
CONTINUOUS
 62
    7
 10
27.36797930226254
 20
24.370737626189459
 11
27.899200402262579
 21
23.57692772618946
  0
LINE
  8
_0-1_地形
  6
CONTINUOUS
 62
    7
 10
27.899200402262579
 20
23.57692772618946
 11
28.078396042262568
 21
22.76793920618946
  0
LINE
  8
_0-1_地形
  6
CONTINUOUS
 62
    7
 10
28.078396042262568
 20
22.76793920618946
 11
28.182208582262547
 21
21.44406794618947
  0
LINE
  8
_0-1_地形
  6
CONTINUOUS
 62
    7
 10
28.182208582262547
 20
21.44406794618947
 11
28.279381942262546
 21
20.103789986189476
  0
LINE
  8
_0-1_地形
  6
CONTINUOUS
 62
    7
 10
28.279381942262546
 20
20.103789986189476
 11
28.306209982262544
 21
19.215817766189453
  0
LINE
  8
_0-1_地形
  6
CONTINUOUS
 62
    7
 10
28.115941222262563
 20
19.216184966189466
 11
27.899042302262558
 21
21.262305986189453
  0
LINE
  8
_0-1_地形
  6
CONTINUOUS
 62
    7
 10
27.899042302262558
 20
21.262305986189453
 11
27.71389394226253
 21
22.845455126189471
  0
LINE
  8
_0-1_地形
  6
CONTINUOUS
 62
    7
 10
27.375199882262525
 20
22.752367886189468
 11
27.078999022262526
 21
22.516175666189461
  0
LINE
  8
_0-1_地形
  6
CONTINUOUS
 62
    7
 10
27.078999022262526
 20
22.516175666189461
 11
26.713676842262544
 21
22.18390964618947
  0
LINE
  8
_0-1_地形
  6
CONTINUOUS
 62
    7
 10
26.713676842262544
 20
22.18390964618947
 11
26.151441622262553
 21
22.027491626189452
  0
LINE
  8
_0-1_地形
  6
CONTINUOUS
 62
    7
 10
26.151441622262553
 20
22.027491626189452
 11
25.571800102262557
 21
22.04658194618947
  0
LINE
  8
_0-1_地形
  6
CONTINUOUS
 62
    7
 10
25.571800102262557
 20
22.04658194618947
 11
25.309761082262582
 21
22.211432306189472
  0
LINE
  8
_0-1_地形
  6
CONTINUOUS
 62
    7
 10
25.309761082262582
 20
22.211432306189472
 11
25.245931522262538
 21
22.440432506189445
  0
LINE
  8
_0-1_地形
  6
CONTINUOUS
 62
    7
 10
25.245931522262538
 20
22.440432506189445
 11
25.052117242262568
 21
23.05615856618946
  0
LINE
  8
_0-1_地形
  6
CONTINUOUS
 62
    7
 10
25.052117242262568
 20
23.05615856618946
 11
25.001979142262542
 21
23.062339766189446
  0
LINE
  8
_0-1_地形
  6
CONTINUOUS
 62
    7
 10
25.001979142262542
 20
23.062339766189446
 11
24.133772482262543
 21
21.269253206189454
  0
LINE
  8
_0-1_地形
  6
CONTINUOUS
 62
    7
 10
24.133772482262543
 20
21.269253206189454
 11
23.640357682262522
 21
19.625379386189472
  0
LINE
  8
_0-1_地形
  6
CONTINUOUS
 62
    7
 10
23.640357682262522
 20
19.625379386189472
 11
23.357943142262531
 21
17.55306680618947
  0
LINE
  8
_0-1_地形
  6
CONTINUOUS
 62
    7
 10
23.357943142262531
 20
17.55306680618947
 11
23.334054742262538
 21
16.246287686189454
  0
LINE
  8
_0-1_地形
  6
CONTINUOUS
 62
    7
 10
29.340813322262534
 20
16.524272366189471
 11
29.334004822262557
 21
16.106113166189452
  0
LINE
  8
_0-1_地形
  6
CONTINUOUS
 62
    7
 10
4.0374030222625379
 20
26.139001466189448
 11
5.9245784622625592
 21
28.032313226189451
  0
LINE
  8
_0-1_地形
  6
CONTINUOUS
 62
    7
 10
3.5916671022625524
 20
28.142689466189459
 11
3.8622170022625442
 21
28.142719046189477
  0
LINE
  8
_0-1_地形
  6
CONTINUOUS
 62
    7
 10
3.8622170022625442
 20
28.142719046189477
 11
4.1345916822625286
 21
28.189927706189458
  0
LINE
  8
_0-1_地形
  6
CONTINUOUS
 62
    7
 10
4.1345916822625286
 20
28.189927706189458
 11
4.3920845622625393
 21
28.282190786189453
  0
LINE
  8
_0-1_地形
  6
CONTINUOUS
 62
    7
 10
18.719891962262579
 20
27.980324846189468
 11
17.491453942262581
 21
26.90454308618947
  0
LINE
  8
_0-1_地形
  6
CONTINUOUS
 62
    7
 10
17.491453942262581
 20
26.90454308618947
 11
16.430212282262534
 21
25.761767726189454
  0
LINE
  8
_0-1_地形
  6
CONTINUOUS
 62
    7
 10
16.430212282262534
 20
25.761767726189454
 11
16.136205442262565
 21
25.415871446189463
  0
LINE
  8
_0-1_地形
  6
CONTINUOUS
 62
    7
 10
16.136205442262565
 20
25.415871446189463
 11
15.844774102262534
 21
25.169112026189474
  0
LINE
  8
_0-1_地形
  6
CONTINUOUS
 62
    7
 10
15.844774102262534
 20
25.169112026189474
 11
15.563386702262562
 21
25.005564206189455
  0
LINE
  8
_0-1_地形
  6
CONTINUOUS
 62
    7
 10
15.563386702262562
 20
25.005564206189455
 11
15.124695922262561
 21
24.652889006189476
  0
LINE
  8
_0-1_地形
  6
CONTINUOUS
 62
    7
 10
15.124695922262561
 20
24.652889006189476
 11
14.715396442262545
 21
24.38630384618947
  0
LINE
  8
_0-1_地形
  6
CONTINUOUS
 62
    7
 10
14.715396442262545
 20
24.38630384618947
 11
14.461787722262557
 21
24.246620966189475
  0
LINE
  8
_0-1_地形
  6
CONTINUOUS
 62
    7
 10
14.461787722262557
 20
24.246620966189475
 11
13.890748882262585
 21
23.993899646189455
  0
LINE
  8
_0-1_地形
  6
CONTINUOUS
 62
    7
 10
13.890748882262585
 20
23.993899646189455
 11
13.470074362262551
 21
23.741058986189451
  0
LINE
  8
_0-1_地形
  6
CONTINUOUS
 62
    7
 10
13.470074362262551
 20
23.741058986189451
 11
13.169356942262596
 21
23.513418446189469
  0
LINE
  8
_0-1_地形
  6
CONTINUOUS
 62
    7
 10
13.169356942262596
 20
23.513418446189469
 11
12.867238042262517
 21
23.234827886189443
  0
LINE
  8
_0-1_地形
  6
CONTINUOUS
 62
    7
 10
12.867238042262517
 20
23.234827886189443
 11
12.64690274226253
 21
22.991048906189469
  0
LINE
  8
_0-1_地形
  6
CONTINUOUS
 62
    7
 10
12.64690274226253
 20
22.991048906189469
 11
12.336036322262544
 21
22.236945566189469
  0
LINE
  8
_0-1_地形
  6
CONTINUOUS
 62
    7
 10
12.336036322262544
 20
22.236945566189469
 11
12.124025242262576
 21
21.745841066189449
  0
LINE
  8
_0-1_地形
  6
CONTINUOUS
 62
    7
 10
12.124025242262576
 20
21.745841066189449
 11
11.739351622262536
 21
21.26605346618944
  0
LINE
  8
_0-1_地形
  6
CONTINUOUS
 62
    7
 10
11.739351622262536
 20
21.26605346618944
 11
11.392277242262555
 21
21.01349024618947
  0
LINE
  8
_0-1_地形
  6
CONTINUOUS
 62
    7
 10
11.392277242262555
 20
21.01349024618947
 11
10.918742242262567
 21
20.819069066189449
  0
LINE
  8
_0-1_地形
  6
CONTINUOUS
 62
    7
 10
10.918742242262567
 20
20.819069066189449
 11
10.696770862262554
 21
20.847623966189452
  0
LINE
  8
_0-1_地形
  6
CONTINUOUS
 62
    7
 10
10.696770862262554
 20
20.847623966189452
 11
10.559175922262568
 21
20.92288262618947
  0
LINE
  8
_0-1_地形
  6
CONTINUOUS
 62
    7
 10
10.559175922262568
 20
20.92288262618947
 11
10.393507522262553
 21
21.077476886189451
  0
LINE
  8
_0-1_地形
  6
CONTINUOUS
 62
    7
 10
10.393507522262553
 20
21.077476886189451
 11
10.086765982262534
 21
21.272531486189472
  0
LINE
  8
_0-1_地形
  6
CONTINUOUS
 62
    7
 10
10.086765982262534
 20
21.272531486189472
 11
9.6619553622625745
 21
21.411324926189458
  0
LINE
  8
_0-1_地形
  6
CONTINUOUS
 62
    7
 10
9.6619553622625745
 20
21.411324926189458
 11
9.2074984422625512
 21
21.42805802618944
  0
LINE
  8
_0-1_地形
  6
CONTINUOUS
 62
    7
 10
9.2074984422625512
 20
21.42805802618944
 11
8.8035764022625358
 21
21.276458486189476
  0
LINE
  8
_0-1_地形
  6
CONTINUOUS
 62
    7
 10
8.8035764022625358
 20
21.276458486189476
 11
8.6243736222625671
 21
21.009366386189448
  0
LINE
  8
_0-1_地形
  6
CONTINUOUS
 62
    7
 10
8.6243736222625671
 20
21.009366386189448
 11
8.422298362262552
 21
20.506844006189461
  0
LINE
  8
_0-1_地形
  6
CONTINUOUS
 62
    7
 10
8.422298362262552
 20
20.506844006189461
 11
8.0908442622625785
 21
20.012710106189438
  0
LINE
  8
_0-1_地形
  6
CONTINUOUS
 62
    7
 10
8.0908442622625785
 20
20.012710106189438
 11
7.5227420022625511
 21
19.487180606189462
  0
LINE
  8
_0-1_地形
  6
CONTINUOUS
 62
    7
 10
7.5227420022625511
 20
19.487180606189462
 11
6.8945127822625523
 21
19.07272808618945
  0
LINE
  8
_0-1_地形
  6
CONTINUOUS
 62
    7
 10
6.8945127822625523
 20
19.07272808618945
 11
6.482903002262522
 21
18.701343026189456
  0
LINE
  8
_0-1_地形
  6
CONTINUOUS
 62
    7
 10
6.482903002262522
 20
18.701343026189456
 11
6.2735010822625172
 21
18.462434546189463
  0
LINE
  8
_0-1_地形
  6
CONTINUOUS
 62
    7
 10
4.592416642262549
 20
26.194792406189457
 11
6.4341398622625166
 21
28.08664964618945
  0
LINE
  8
_0-1_地形
  6
CONTINUOUS
 62
    7
 10
4.7674537422625463
 20
26.037224846189467
 11
6.6027642222625786
 21
27.922493906189452
  0
LINE
  8
_0-1_地形
  6
CONTINUOUS
 62
    7
 10
4.9652929422625789
 20
25.859130806189448
 11
5.5627242822625549
 21
26.513920826189455
  0
LINE
  8
_0-1_地形
  6
CONTINUOUS
 62
    7
 10
5.0912017422625695
 20
25.700684006189455
 11
6.9371936622625299
 21
27.596926226189446
  0
LINE
  8
_0-1_地形
  6
CONTINUOUS
 62
    7
 10
5.3926749822625766
 20
26.679464786189449
 11
5.7271044222625846
 21
26.353897106189471
  0
LINE
  8
_0-1_地形
  6
CONTINUOUS
 62
    7
 10
5.9746196622625689
 20
27.277250066189474
 11
6.309049102262577
 21
26.951682386189454
  0
LINE
  8
_0-1_地形
  6
CONTINUOUS
 62
    7
 10
5.3926749822625766
 20
26.679464786189449
 11
5.510315662262542
 21
26.671584266189448
  0
LINE
  8
_0-1_地形
  6
CONTINUOUS
 62
    7
 10
5.510315662262542
 20
26.671584266189448
 11
5.6186947422625622
 21
26.722588346189461
  0
LINE
  8
_0-1_地形
  6
CONTINUOUS
 62
    7
 10
5.6186947422625622
 20
26.722588346189461
 11
5.9428446222625171
 21
27.05556224618946
  0
LINE
  8
_0-1_地形
  6
CONTINUOUS
 62
    7
 10
5.9428446222625171
 20
27.05556224618946
 11
5.9906255022625601
 21
27.151949186189448
  0
LINE
  8
_0-1_地形
  6
CONTINUOUS
 62
    7
 10
5.9906255022625601
 20
27.151949186189448
 11
5.9738159022625341
 21
27.276424886189467
  0
LINE
  8
_0-1_地形
  6
CONTINUOUS
 62
    7
 10
6.1253256822625417
 20
27.130537346189449
 11
6.7325918622625522
 21
27.796106726189457
  0
LINE
  8
_0-1_地形
  6
CONTINUOUS
 62
    7
 10
4.592416642262549
 20
26.194792406189457
 11
5.2016249022625134
 21
25.601727686189456
  0
LINE
  8
_0-1_地形
  6
CONTINUOUS
 62
    7
 10
5.2016249022625134
 20
25.601727686189456
 11
5.3750881422625412
 21
25.611720626189445
  0
LINE
  8
_0-1_地形
  6
CONTINUOUS
 62
    7
 10
5.3750881422625412
 20
25.611720626189445
 11
5.5541981022625464
 21
25.678430666189449
  0
LINE
  8
_0-1_地形
  6
CONTINUOUS
 62
    7
 10
5.5541981022625464
 20
25.678430666189449
 11
5.6382675222625567
 21
25.767676586189474
  0
LINE
  8
_0-1_地形
  6
CONTINUOUS
 62
    7
 10
5.6382675222625567
 20
25.767676586189474
 11
5.6609094822625439
 21
25.90733192618945
  0
LINE
  8
_0-1_地形
  6
CONTINUOUS
 62
    7
 10
5.6609094822625439
 20
25.90733192618945
 11
5.6200962222625321
 21
26.039621846189441
  0
LINE
  8
_0-1_地形
  6
CONTINUOUS
 62
    7
 10
5.6200962222625321
 20
26.039621846189441
 11
6.6125796822625489
 21
27.059122046189465
  0
LINE
  8
_0-1_地形
  6
CONTINUOUS
 62
    7
 10
6.6125796822625489
 20
27.059122046189465
 11
6.7459171422625559
 21
27.021874706189458
  0
LINE
  8
_0-1_地形
  6
CONTINUOUS
 62
    7
 10
6.7459171422625559
 20
27.021874706189458
 11
6.8849145822625433
 21
27.048258026189465
  0
LINE
  8
_0-1_地形
  6
CONTINUOUS
 62
    7
 10
6.8849145822625433
 20
27.048258026189465
 11
6.9718706022625456
 21
27.134693846189442
  0
LINE
  8
_0-1_地形
  6
CONTINUOUS
 62
    7
 10
6.9718706022625456
 20
27.134693846189442
 11
7.0337478822625217
 21
27.315530666189467
  0
LINE
  8
_0-1_地形
  6
CONTINUOUS
 62
    7
 10
7.0337478822625217
 20
27.315530666189467
 11
7.0393344222625842
 21
27.49749254618947
  0
LINE
  8
_0-1_地形
  6
CONTINUOUS
 62
    7
 10
7.0393344222625842
 20
27.49749254618947
 11
6.4341398622625166
 21
28.08664964618945
  0
LINE
  8
_0-1_地形
  6
CONTINUOUS
 62
    7
 10
4.592416642262549
 20
26.194792406189457
 11
4.3972518822625375
 21
26.134294166189441
  0
LINE
  8
_0-1_地形
  6
CONTINUOUS
 62
    7
 10
4.3972518822625375
 20
26.134294166189441
 11
4.2693316422625571
 21
26.000859806189474
  0
LINE
  8
_0-1_地形
  6
CONTINUOUS
 62
    7
 10
4.2693316422625571
 20
26.000859806189474
 11
4.0374122022625443
 21
25.702258886189448
  0
LINE
  8
_0-1_地形
  6
CONTINUOUS
 62
    7
 10
4.0374122022625443
 20
25.702258886189448
 11
3.7620050622625358
 21
25.407006626189464
  0
LINE
  8
_0-1_地形
  6
CONTINUOUS
 62
    7
 10
7.0427055222625654
 20
17.910831806189442
 11
7.4763197622625626
 21
18.575154746189448
  0
LINE
  8
_0-1_地形
  6
CONTINUOUS
 62
    7
 10
7.4763197622625626
 20
18.575154746189448
 11
7.9439642622625684
 21
19.097963906189456
  0
LINE
  8
_0-1_地形
  6
CONTINUOUS
 62
    7
 10
7.9439642622625684
 20
19.097963906189456
 11
8.5697679222625425
 21
19.612222406189467
  0
LINE
  8
_0-1_地形
  6
CONTINUOUS
 62
    7
 10
8.5697679222625425
 20
19.612222406189467
 11
9.1673777622625607
 21
19.817433146189465
  0
LINE
  8
_0-1_地形
  6
CONTINUOUS
 62
    7
 10
9.1673777622625607
 20
19.817433146189465
 11
9.8256459822625288
 21
19.903473206189453
  0
LINE
  8
_0-1_地形
  6
CONTINUOUS
 62
    7
 10
9.8256459822625288
 20
19.903473206189453
 11
10.393670722262584
 21
19.868738126189463
  0
LINE
  8
_0-1_地形
  6
CONTINUOUS
 62
    7
 10
10.393670722262584
 20
19.868738126189463
 11
11.122909522262546
 21
19.803908966189461
  0
LINE
  8
_0-1_地形
  6
CONTINUOUS
 62
    7
 10
11.122909522262546
 20
19.803908966189461
 11
11.852355382262544
 21
19.84689788618946
  0
LINE
  8
_0-1_地形
  6
CONTINUOUS
 62
    7
 10
11.852355382262544
 20
19.84689788618946
 11
12.038220802262533
 21
19.924437266189464
  0
LINE
  8
_0-1_地形
  6
CONTINUOUS
 62
    7
 10
12.038220802262533
 20
19.924437266189464
 11
12.296541922262538
 21
20.383287326189453
  0
LINE
  8
_0-1_地形
  6
CONTINUOUS
 62
    7
 10
12.296541922262538
 20
20.383287326189453
 11
12.407461822262537
 21
20.745936086189452
  0
LINE
  8
_0-1_地形
  6
CONTINUOUS
 62
    7
 10
12.407461822262537
 20
20.745936086189452
 11
12.522384202262572
 21
21.565952846189468
  0
LINE
  8
_0-1_地形
  6
CONTINUOUS
 62
    7
 10
12.522384202262572
 20
21.565952846189468
 11
12.65567678226256
 21
22.020754526189442
  0
LINE
  8
_0-1_地形
  6
CONTINUOUS
 62
    7
 10
12.65567678226256
 20
22.020754526189442
 11
12.964935682262592
 21
22.461540386189476
  0
LINE
  8
_0-1_地形
  6
CONTINUOUS
 62
    7
 10
12.964935682262592
 20
22.461540386189476
 11
13.411965982262547
 21
22.827937646189447
  0
LINE
  8
_0-1_地形
  6
CONTINUOUS
 62
    7
 10
13.411965982262547
 20
22.827937646189447
 11
13.914328222262554
 21
23.089642106189451
  0
LINE
  8
_0-1_地形
  6
CONTINUOUS
 62
    7
 10
13.914328222262554
 20
23.089642106189451
 11
14.456316442262562
 21
23.318668826189459
  0
LINE
  8
_0-1_地形
  6
CONTINUOUS
 62
    7
 10
14.456316442262562
 20
23.318668826189459
 11
15.075024982262562
 21
23.568334226189442
  0
LINE
  8
_0-1_地形
  6
CONTINUOUS
 62
    7
 10
15.075024982262562
 20
23.568334226189442
 11
15.66967070226254
 21
23.893163426189467
  0
LINE
  8
_0-1_地形
  6
CONTINUOUS
 62
    7
 10
15.66967070226254
 20
23.893163426189467
 11
16.249619242262554
 21
24.310471946189445
  0
LINE
  8
_0-1_地形
  6
CONTINUOUS
 62
    7
 10
16.249619242262554
 20
24.310471946189445
 11
16.699888042262558
 21
24.72288242618945
  0
LINE
  8
_0-1_地形
  6
CONTINUOUS
 62
    7
 10
16.699888042262558
 20
24.72288242618945
 11
17.042216362262554
 21
25.172775866189475
  0
LINE
  8
_0-1_地形
  6
CONTINUOUS
 62
    7
 10
17.042216362262554
 20
25.172775866189475
 11
17.28936236226258
 21
25.642778606189445
  0
LINE
  8
_0-1_地形
  6
CONTINUOUS
 62
    7
 10
17.28936236226258
 20
25.642778606189445
 11
17.580461182262582
 21
26.209167266189461
  0
LINE
  8
_0-1_地形
  6
CONTINUOUS
 62
    7
 10
17.580461182262582
 20
26.209167266189461
 11
18.004324222262539
 21
26.765363066189444
  0
LINE
  8
_0-1_地形
  6
CONTINUOUS
 62
    7
 10
18.004324222262539
 20
26.765363066189444
 11
18.495959122262548
 21
27.213724466189454
  0
LINE
  8
_0-1_地形
  6
CONTINUOUS
 62
    7
 10
18.495959122262548
 20
27.213724466189454
 11
18.954651082262519
 21
27.513713606189448
  0
LINE
  8
_0-1_地形
  6
CONTINUOUS
 62
    7
 10
21.207458782262563
 20
28.184822606189449
 11
20.032958362262548
 21
27.575056406189468
  0
LINE
  8
_0-1_地形
  6
CONTINUOUS
 62
    7
 10
20.032958362262548
 20
27.575056406189468
 11
19.632829702262541
 21
27.37122368618946
  0
LINE
  8
_0-1_地形
  6
CONTINUOUS
 62
    7
 10
19.632829702262541
 20
27.37122368618946
 11
19.190264962262574
 21
27.086535566189447
  0
LINE
  8
_0-1_地形
  6
CONTINUOUS
 62
    7
 10
19.190264962262574
 20
27.086535566189447
 11
18.609467782262584
 21
26.624410286189466
  0
LINE
  8
_0-1_地形
  6
CONTINUOUS
 62
    7
 10
18.609467782262584
 20
26.624410286189466
 11
18.402731122262537
 21
26.37193886618946
  0
LINE
  8
_0-1_地形
  6
CONTINUOUS
 62
    7
 10
18.402731122262537
 20
26.37193886618946
 11
18.264852622262595
 21
26.102153966189455
  0
LINE
  8
_0-1_地形
  6
CONTINUOUS
 62
    7
 10
18.264852622262595
 20
26.102153966189455
 11
18.184125742262552
 21
25.804609766189451
  0
LINE
  8
_0-1_地形
  6
CONTINUOUS
 62
    7
 10
18.184125742262552
 20
25.804609766189451
 11
18.166081942262565
 21
25.518721106189453
  0
LINE
  8
_0-1_地形
  6
CONTINUOUS
 62
    7
 10
18.166081942262565
 20
25.518721106189453
 11
18.205025542262547
 21
25.228763666189472
  0
LINE
  8
_0-1_地形
  6
CONTINUOUS
 62
    7
 10
18.205025542262547
 20
25.228763666189472
 11
18.406890682262599
 21
24.643673306189463
  0
LINE
  8
_0-1_地形
  6
CONTINUOUS
 62
    7
 10
18.406890682262599
 20
24.643673306189463
 11
18.704861242262552
 21
23.97940952618945
  0
LINE
  8
_0-1_地形
  6
CONTINUOUS
 62
    7
 10
18.704861242262552
 20
23.97940952618945
 11
19.04194676226253
 21
23.358776246189457
  0
LINE
  8
_0-1_地形
  6
CONTINUOUS
 62
    7
 10
19.04194676226253
 20
23.358776246189457
 11
19.237764322262553
 21
23.120600126189451
  0
LINE
  8
_0-1_地形
  6
CONTINUOUS
 62
    7
 10
19.237764322262553
 20
23.120600126189451
 11
19.48237154226257
 21
22.918988966189467
  0
LINE
  8
_0-1_地形
  6
CONTINUOUS
 62
    7
 10
19.48237154226257
 20
22.918988966189467
 11
19.720501762262529
 21
22.786686806189472
  0
LINE
  8
_0-1_地形
  6
CONTINUOUS
 62
    7
 10
19.720501762262529
 20
22.786686806189472
 11
20.034597502262557
 21
22.682400986189442
  0
LINE
  8
_0-1_地形
  6
CONTINUOUS
 62
    7
 10
20.034597502262557
 20
22.682400986189442
 11
20.329897702262542
 21
22.644938426189462
  0
LINE
  8
_0-1_地形
  6
CONTINUOUS
 62
    7
 10
20.329897702262542
 20
22.644938426189462
 11
20.57842070226252
 21
22.655558666189471
  0
LINE
  8
_0-1_地形
  6
CONTINUOUS
 62
    7
 10
20.57842070226252
 20
22.655558666189471
 11
21.313783582262545
 21
22.797872126189468
  0
LINE
  8
_0-1_地形
  6
CONTINUOUS
 62
    7
 10
21.313783582262545
 20
22.797872126189468
 11
21.965898142262574
 21
22.914201086189458
  0
LINE
  8
_0-1_地形
  6
CONTINUOUS
 62
    7
 10
21.965898142262574
 20
22.914201086189458
 11
22.703595802262555
 21
23.034695726189462
  0
LINE
  8
_0-1_地形
  6
CONTINUOUS
 62
    7
 10
22.703595802262555
 20
23.034695726189462
 11
23.329915582262572
 21
23.135965406189449
  0
LINE
  8
_0-1_地形
  6
CONTINUOUS
 62
    7
 10
23.329915582262572
 20
23.135965406189449
 11
23.66559146226253
 21
23.217447086189473
  0
LINE
  8
_0-1_地形
  6
CONTINUOUS
 62
    7
 10
23.66559146226253
 20
23.217447086189473
 11
23.991365182262541
 21
23.321632946189446
  0
LINE
  8
_0-1_地形
  6
CONTINUOUS
 62
    7
 10
23.991365182262541
 20
23.321632946189446
 11
24.276924382262525
 21
23.434681586189463
  0
LINE
  8
_0-1_地形
  6
CONTINUOUS
 62
    7
 10
24.276924382262525
 20
23.434681586189463
 11
24.636780382262543
 21
23.608676246189468
  0
LINE
  8
_0-1_地形
  6
CONTINUOUS
 62
    7
 10
24.636780382262543
 20
23.608676246189468
 11
25.083809662262581
 21
23.880445046189458
  0
LINE
  8
_0-1_地形
  6
CONTINUOUS
 62
    7
 10
25.083809662262581
 20
23.880445046189458
 11
25.428116782262521
 21
24.145863326189463
  0
LINE
  8
_0-1_地形
  6
CONTINUOUS
 62
    7
 10
25.428116782262521
 20
24.145863326189463
 11
25.700380282262547
 21
24.378612026189465
  0
LINE
  8
_0-1_地形
  6
CONTINUOUS
 62
    7
 10
25.700380282262547
 20
24.378612026189465
 11
26.027674822262554
 21
24.68903066618946
  0
LINE
  8
_0-1_地形
  6
CONTINUOUS
 62
    7
 10
26.027674822262554
 20
24.68903066618946
 11
26.339934562262556
 21
25.021557806189456
  0
LINE
  8
_0-1_地形
  6
CONTINUOUS
 62
    7
 10
26.339934562262556
 20
25.021557806189456
 11
26.600995402262544
 21
25.332135566189457
  0
LINE
  8
_0-1_地形
  6
CONTINUOUS
 62
    7
 10
26.600995402262544
 20
25.332135566189457
 11
26.881956442262549
 21
25.706967206189439
  0
LINE
  8
_0-1_地形
  6
CONTINUOUS
 62
    7
 10
26.881956442262549
 20
25.706967206189439
 11
27.198804142262532
 21
26.19457208618946
  0
LINE
  8
_0-1_地形
  6
CONTINUOUS
 62
    7
 10
27.198804142262532
 20
26.19457208618946
 11
28.187159662262559
 21
28.190387726189464
  0
LINE
  8
_0-1_地形
  6
CONTINUOUS
 62
    7
 10
21.102153982262564
 20
22.04180120618944
 11
21.546024322262554
 21
21.636567446189467
  0
LINE
  8
_0-1_地形
  6
CONTINUOUS
 62
    7
 10
21.546024322262554
 20
21.636567446189467
 11
22.056506782262545
 21
21.24042086618946
  0
LINE
  8
_0-1_地形
  6
CONTINUOUS
 62
    7
 10
22.056506782262545
 20
21.24042086618946
 11
22.358505322262545
 21
20.89164818618945
  0
LINE
  8
_0-1_地形
  6
CONTINUOUS
 62
    7
 10
22.358505322262545
 20
20.89164818618945
 11
22.543688362262571
 21
20.574668906189466
  0
LINE
  8
_0-1_地形
  6
CONTINUOUS
 62
    7
 10
22.543688362262571
 20
20.574668906189466
 11
22.755436282262565
 21
20.252541686189439
  0
LINE
  8
_0-1_地形
  6
CONTINUOUS
 62
    7
 10
22.755436282262565
 20
20.252541686189439
 11
23.047125682262561
 21
20.04262568618946
  0
LINE
  8
_0-1_地形
  6
CONTINUOUS
 62
    7
 10
23.047125682262561
 20
20.04262568618946
 11
23.134451962262535
 21
20.449764806189471
  0
LINE
  8
_0-1_地形
  6
CONTINUOUS
 62
    7
 10
23.134451962262535
 20
20.449764806189471
 11
23.306913562262537
 21
20.958308246189468
  0
LINE
  8
_0-1_地形
  6
CONTINUOUS
 62
    7
 10
23.306913562262537
 20
20.958308246189468
 11
23.568214102262534
 21
21.48161924618946
  0
LINE
  8
_0-1_地形
  6
CONTINUOUS
 62
    7
 10
23.568214102262534
 20
21.48161924618946
 11
23.830505062262546
 21
21.872355746189449
  0
LINE
  8
_0-1_地形
  6
CONTINUOUS
 62
    7
 10
23.830505062262546
 20
21.872355746189449
 11
24.066116902262554
 21
22.363429646189452
  0
LINE
  8
_0-1_地形
  6
CONTINUOUS
 62
    7
 10
24.066116902262554
 20
22.363429646189452
 11
24.128911162262568
 21
22.553055806189469
  0
LINE
  8
_0-1_地形
  6
CONTINUOUS
 62
    7
 10
24.128911162262568
 20
22.553055806189469
 11
24.133102342262532
 21
22.713560966189455
  0
LINE
  8
_0-1_地形
  6
CONTINUOUS
 62
    7
 10
24.133102342262532
 20
22.713560966189455
 11
24.094530022262536
 21
22.87260548618945
  0
LINE
  8
_0-1_地形
  6
CONTINUOUS
 62
    7
 10
24.094530022262536
 20
22.87260548618945
 11
23.784944722262537
 21
22.755094346189445
  0
LINE
  8
_0-1_地形
  6
CONTINUOUS
 62
    7
 10
23.784944722262537
 20
22.755094346189445
 11
23.482379062262527
 21
22.658101526189448
  0
LINE
  8
_0-1_地形
  6
CONTINUOUS
 62
    7
 10
23.482379062262527
 20
22.658101526189448
 11
22.925055142262522
 21
22.522883186189453
  0
LINE
  8
_0-1_地形
  6
CONTINUOUS
 62
    7
 10
22.925055142262522
 20
22.522883186189453
 11
22.322128042262534
 21
22.436557526189468
  0
LINE
  8
_0-1_地形
  6
CONTINUOUS
 62
    7
 10
22.322128042262534
 20
22.436557526189468
 11
21.975516742262545
 21
22.403863466189442
  0
LINE
  8
_0-1_地形
  6
CONTINUOUS
 62
    7
 10
21.975516742262545
 20
22.403863466189442
 11
21.690561382262519
 21
22.333659926189448
  0
LINE
  8
_0-1_地形
  6
CONTINUOUS
 62
    7
 10
21.690561382262519
 20
22.333659926189448
 11
21.382485682262541
 21
22.208657906189465
  0
LINE
  8
_0-1_地形
  6
CONTINUOUS
 62
    7
 10
21.382485682262541
 20
22.208657906189465
 11
21.102153982262564
 21
22.04180120618944
  0
LINE
  8
_0-1_地形
  6
CONTINUOUS
 62
    7
 10
18.828184342262546
 20
22.643618546189465
 11
18.659518162262543
 21
23.213512946189461
  0
LINE
  8
_0-1_地形
  6
CONTINUOUS
 62
    7
 10
18.659518162262543
 20
23.213512946189461
 11
18.43030784226255
 21
23.792446586189449
  0
LINE
  8
_0-1_地形
  6
CONTINUOUS
 62
    7
 10
18.43030784226255
 20
23.792446586189449
 11
18.187955842262568
 21
24.278583686189457
  0
LINE
  8
_0-1_地形
  6
CONTINUOUS
 62
    7
 10
18.187955842262568
 20
24.278583686189457
 11
17.925735262262549
 21
24.716321786189461
  0
LINE
  8
_0-1_地形
  6
CONTINUOUS
 62
    7
 10
17.925735262262549
 20
24.716321786189461
 11
17.562095062262529
 21
25.222647746189459
  0
LINE
  8
_0-1_地形
  6
CONTINUOUS
 62
    7
 10
17.562095062262529
 20
25.222647746189459
 11
17.17907384226254
 21
24.851171906189457
  0
LINE
  8
_0-1_地形
  6
CONTINUOUS
 62
    7
 10
17.17907384226254
 20
24.851171906189457
 11
16.80499598226254
 21
24.42282188618946
  0
LINE
  8
_0-1_地形
  6
CONTINUOUS
 62
    7
 10
16.80499598226254
 20
24.42282188618946
 11
16.430429542262534
 21
24.041027726189448
  0
LINE
  8
_0-1_地形
  6
CONTINUOUS
 62
    7
 10
16.430429542262534
 20
24.041027726189448
 11
15.935131822262576
 21
23.641768106189467
  0
LINE
  8
_0-1_地形
  6
CONTINUOUS
 62
    7
 10
15.935131822262576
 20
23.641768106189467
 11
15.462411802262523
 21
23.345623346189477
  0
LINE
  8
_0-1_地形
  6
CONTINUOUS
 62
    7
 10
15.462411802262523
 20
23.345623346189477
 11
14.875524202262529
 21
23.069592986189456
  0
LINE
  8
_0-1_地形
  6
CONTINUOUS
 62
    7
 10
14.875524202262529
 20
23.069592986189456
 11
14.362686562262581
 21
22.87889888618944
  0
LINE
  8
_0-1_地形
  6
CONTINUOUS
 62
    7
 10
14.362686562262581
 20
22.87889888618944
 11
13.839367402262553
 21
22.565821106189453
  0
LINE
  8
_0-1_地形
  6
CONTINUOUS
 62
    7
 10
13.839367402262553
 20
22.565821106189453
 11
13.411047982262573
 21
22.152330446189445
  0
LINE
  8
_0-1_地形
  6
CONTINUOUS
 62
    7
 10
13.411047982262573
 20
22.152330446189445
 11
13.080552682262539
 21
21.64201934618945
  0
LINE
  8
_0-1_地形
  6
CONTINUOUS
 62
    7
 10
13.080552682262539
 20
21.64201934618945
 11
12.958820782262535
 21
21.354229406189468
  0
LINE
  8
_0-1_地形
  6
CONTINUOUS
 62
    7
 10
12.958820782262535
 20
21.354229406189468
 11
13.040658442262554
 21
21.036957386189449
  0
LINE
  8
_0-1_地形
  6
CONTINUOUS
 62
    7
 10
13.040658442262554
 20
21.036957386189449
 11
14.218856362262557
 21
19.676068286189455
  0
LINE
  8
_0-1_地形
  6
CONTINUOUS
 62
    7
 10
14.218856362262557
 20
19.676068286189455
 11
14.579502862262586
 21
20.138831066189447
  0
LINE
  8
_0-1_地形
  6
CONTINUOUS
 62
    7
 10
14.579502862262586
 20
20.138831066189447
 11
15.09141230226254
 21
20.660923166189441
  0
LINE
  8
_0-1_地形
  6
CONTINUOUS
 62
    7
 10
15.09141230226254
 20
20.660923166189441
 11
15.620286382262577
 21
21.083319446189456
  0
LINE
  8
_0-1_地形
  6
CONTINUOUS
 62
    7
 10
15.620286382262577
 20
21.083319446189456
 11
16.096501942262535
 21
21.386537906189453
  0
LINE
  8
_0-1_地形
  6
CONTINUOUS
 62
    7
 10
16.096501942262535
 20
21.386537906189453
 11
16.628415622262537
 21
21.654753026189447
  0
LINE
  8
_0-1_地形
  6
CONTINUOUS
 62
    7
 10
16.628415622262537
 20
21.654753026189447
 11
18.828184342262546
 21
22.643618546189465
  0
LINE
  8
_0-1_地形
  6
CONTINUOUS
 62
    7
 10
14.096939842262543
 20
19.250789486189468
 11
13.111653502262527
 21
20.341405106189477
  0
LINE
  8
_0-1_地形
  6
CONTINUOUS
 62
    7
 10
13.111653502262527
 20
20.341405106189477
 11
12.785071942262523
 21
20.05439444618947
  0
LINE
  8
_0-1_地形
  6
CONTINUOUS
 62
    7
 10
12.785071942262523
 20
20.05439444618947
 11
12.479786962262551
 21
19.611022886189438
  0
LINE
  8
_0-1_地形
  6
CONTINUOUS
 62
    7
 10
12.479786962262551
 20
19.611022886189438
 11
12.357396142262548
 21
19.468563566189466
  0
LINE
  8
_0-1_地形
  6
CONTINUOUS
 62
    7
 10
12.357396142262548
 20
19.468563566189466
 11
12.188478022262586
 21
19.35399818618945
  0
LINE
  8
_0-1_地形
  6
CONTINUOUS
 62
    7
 10
12.188478022262586
 20
19.35399818618945
 11
12.016840582262546
 21
19.294241486189456
  0
LINE
  8
_0-1_地形
  6
CONTINUOUS
 62
    7
 10
12.016840582262546
 20
19.294241486189456
 11
11.824302322262554
 21
19.278509006189459
  0
LINE
  8
_0-1_地形
  6
CONTINUOUS
 62
    7
 10
11.824302322262554
 20
19.278509006189459
 11
11.661041122262532
 21
19.305001466189459
  0
LINE
  8
_0-1_地形
  6
CONTINUOUS
 62
    7
 10
11.661041122262532
 20
19.305001466189459
 11
10.997440342262564
 21
19.438513346189474
  0
LINE
  8
_0-1_地形
  6
CONTINUOUS
 62
    7
 10
10.997440342262564
 20
19.438513346189474
 11
10.387835302262562
 21
19.497176606189477
  0
LINE
  8
_0-1_地形
  6
CONTINUOUS
 62
    7
 10
10.387835302262562
 20
19.497176606189477
 11
9.6635761422625706
 21
19.489609226189437
  0
LINE
  8
_0-1_地形
  6
CONTINUOUS
 62
    7
 10
9.6635761422625706
 20
19.489609226189437
 11
9.3147810222625367
 21
19.450224986189475
  0
LINE
  8
_0-1_地形
  6
CONTINUOUS
 62
    7
 10
9.3147810222625367
 20
19.450224986189475
 11
8.9416415622625323
 21
19.339443806189472
  0
LINE
  8
_0-1_地形
  6
CONTINUOUS
 62
    7
 10
8.9416415622625323
 20
19.339443806189472
 11
8.6181495822625607
 21
19.17614894618945
  0
LINE
  8
_0-1_地形
  6
CONTINUOUS
 62
    7
 10
8.6181495822625607
 20
19.17614894618945
 11
8.2780836222625567
 21
18.919983086189468
  0
LINE
  8
_0-1_地形
  6
CONTINUOUS
 62
    7
 10
8.2780836222625567
 20
18.919983086189468
 11
8.0007415422625741
 21
18.658292906189452
  0
LINE
  8
_0-1_地形
  6
CONTINUOUS
 62
    7
 10
8.0007415422625741
 20
18.658292906189452
 11
7.7574256422625467
 21
18.36097412618944
  0
LINE
  8
_0-1_地形
  6
CONTINUOUS
 62
    7
 10
7.7574256422625467
 20
18.36097412618944
 11
7.5434061822625722
 21
18.014110886189449
  0
LINE
  8
_0-1_地形
  6
CONTINUOUS
 62
    7
 10
7.5434061822625722
 20
18.014110886189449
 11
7.371630022262555
 21
17.621421086189464
  0
LINE
  8
_0-1_地形
  6
CONTINUOUS
 62
    7
 10
7.371630022262555
 20
17.621421086189464
 11
7.0082795022625151
 21
15.657644666189464
  0
LINE
  8
_0-1_地形
  6
CONTINUOUS
 62
    7
 10
9.7591460622625732
 20
16.040019206189463
 11
10.624013242262549
 21
16.608232646189457
  0
LINE
  8
_0-1_地形
  6
CONTINUOUS
 62
    7
 10
10.624013242262549
 20
16.608232646189457
 11
11.450612062262564
 21
17.072921186189468
  0
LINE
  8
_0-1_地形
  6
CONTINUOUS
 62
    7
 10
11.450612062262564
 20
17.072921186189468
 11
12.284782342262549
 21
17.580438506189445
  0
LINE
  8
_0-1_地形
  6
CONTINUOUS
 62
    7
 10
12.284782342262549
 20
17.580438506189445
 11
13.133397862262541
 21
18.151035686189466
  0
LINE
  8
_0-1_地形
  6
CONTINUOUS
 62
    7
 10
13.133397862262541
 20
18.151035686189466
 11
13.493978062262556
 21
18.404265986189465
  0
LINE
  8
_0-1_地形
  6
CONTINUOUS
 62
    7
 10
13.493978062262556
 20
18.404265986189465
 11
13.736422882262559
 21
18.649685126189446
  0
LINE
  8
_0-1_地形
  6
CONTINUOUS
 62
    7
 10
13.736422882262559
 20
18.649685126189446
 11
13.932291442262528
 21
18.921627326189459
  0
LINE
  8
_0-1_地形
  6
CONTINUOUS
 62
    7
 10
13.932291442262528
 20
18.921627326189459
 11
14.096939842262543
 21
19.250789486189468
  0
LINE
  8
_0-1_地形
  6
CONTINUOUS
 62
    7
 10
7.0196637222625782
 20
17.503322426189449
 11
6.6885992622625281
 21
15.714037406189457
  0
LINE
  8
_0-1_地形
  6
CONTINUOUS
 62
    7
 10
18.341408722262543
 20
21.952708286189456
 11
17.513030002262553
 21
21.649417406189464
  0
LINE
  8
_0-1_地形
  6
CONTINUOUS
 62
    7
 10
17.513030002262553
 20
21.649417406189464
 11
16.833884422262543
 21
21.315044066189465
  0
LINE
  8
_0-1_地形
  6
CONTINUOUS
 62
    7
 10
16.833884422262543
 20
21.315044066189465
 11
16.087475962262545
 21
20.698110326189457
  0
LINE
  8
_0-1_地形
  6
CONTINUOUS
 62
    7
 10
16.087475962262545
 20
20.698110326189457
 11
15.694444462262538
 21
20.299811546189453
  0
LINE
  8
_0-1_地形
  6
CONTINUOUS
 62
    7
 10
15.694444462262538
 20
20.299811546189453
 11
15.442329022262527
 21
19.96999148618945
  0
LINE
  8
_0-1_地形
  6
CONTINUOUS
 62
    7
 10
15.442329022262527
 20
19.96999148618945
 11
14.317148662262582
 21
18.624424826189447
  0
LINE
  8
_0-1_地形
  6
CONTINUOUS
 62
    7
 10
14.317148662262582
 20
18.624424826189447
 11
13.360446802262533
 21
17.80895624618946
  0
LINE
  8
_0-1_地形
  6
CONTINUOUS
 62
    7
 10
13.360446802262533
 20
17.80895624618946
 11
12.192028642262546
 21
16.912794446189459
  0
LINE
  8
_0-1_地形
  6
CONTINUOUS
 62
    7
 10
12.192028642262546
 20
16.912794446189459
 11
11.148606382262528
 21
16.195081646189443
  0
LINE
  8
_0-1_地形
  6
CONTINUOUS
 62
    7
 10
22.624462162262546
 20
16.061321906189455
 11
22.855253482262526
 21
17.148701066189453
  0
LINE
  8
_0-1_地形
  6
CONTINUOUS
 62
    7
 10
22.855253482262526
 20
17.148701066189453
 11
22.897543702262567
 21
17.883366266189448
  0
LINE
  8
_0-1_地形
  6
CONTINUOUS
 62
    7
 10
22.897543702262567
 20
17.883366266189448
 11
22.778401582262575
 21
18.673970306189453
  0
LINE
  8
_0-1_地形
  6
CONTINUOUS
 62
    7
 10
22.778401582262575
 20
18.673970306189453
 11
22.494071482262541
 21
19.56991586618944
  0
LINE
  8
_0-1_地形
  6
CONTINUOUS
 62
    7
 10
22.494071482262541
 20
19.56991586618944
 11
22.157961082262545
 21
20.246560406189467
  0
LINE
  8
_0-1_地形
  6
CONTINUOUS
 62
    7
 10
22.157961082262545
 20
20.246560406189467
 11
21.820741942262543
 21
20.841059246189467
  0
LINE
  8
_0-1_地形
  6
CONTINUOUS
 62
    7
 10
21.820741942262543
 20
20.841059246189467
 11
21.574545562262529
 21
21.210766406189443
  0
LINE
  8
_0-1_地形
  6
CONTINUOUS
 62
    7
 10
21.574545562262529
 20
21.210766406189443
 11
21.012690802262529
 21
21.622511846189447
  0
LINE
  8
_0-1_地形
  6
CONTINUOUS
 62
    7
 10
21.012690802262529
 20
21.622511846189447
 11
20.465994262262541
 21
21.910556786189453
  0
LINE
  8
_0-1_地形
  6
CONTINUOUS
 62
    7
 10
20.465994262262541
 20
21.910556786189453
 11
19.800618682262552
 21
22.106555906189463
  0
LINE
  8
_0-1_地形
  6
CONTINUOUS
 62
    7
 10
19.800618682262552
 20
22.106555906189463
 11
19.049413162262528
 21
22.109503706189464
  0
LINE
  8
_0-1_地形
  6
CONTINUOUS
 62
    7
 10
19.049413162262528
 20
22.109503706189464
 11
18.341408722262543
 21
21.952708286189456
  0
LINE
  8
_0-1_地形
  6
CONTINUOUS
 62
    7
 10
4.6951602222625297
 20
26.094772226189441
 11
4.6229085222625486
 21
25.915809146189467
  0
LINE
  8
_0-1_地形
  6
CONTINUOUS
 62
    7
 10
4.6229085222625486
 20
25.915809146189467
 11
4.4767731222625571
 21
25.651362926189456
  0
LINE
  8
_0-1_地形
  6
CONTINUOUS
 62
    7
 10
4.4767731222625571
 20
25.651362926189456
 11
4.2882261222625289
 21
25.40567858618946
  0
LINE
  8
_0-1_地形
  6
CONTINUOUS
 62
    7
 10
4.2882261222625289
 20
25.40567858618946
 11
4.038435262262567
 21
25.169981066189457
  0
LINE
  8
_0-1_地形
  6
CONTINUOUS
 62
    7
 10
4.038435262262567
 20
25.169981066189457
 11
3.7143588222625681
 21
24.958767626189477
  0
LINE
  8
_0-1_地形
  6
CONTINUOUS
 62
    7
 10
5.7685715022625459
 20
16.184454266189455
 11
5.8157893422625762
 21
17.229661526189453
  0
LINE
  8
_0-1_地形
  6
CONTINUOUS
 62
    7
 10
5.8157893422625762
 20
17.229661526189453
 11
5.8362332022625765
 21
17.410482026189463
  0
LINE
  8
_0-1_地形
  6
CONTINUOUS
 62
    7
 10
5.8362332022625765
 20
17.410482026189463
 11
5.8726268022625732
 21
17.624999246189454
  0
LINE
  8
_0-1_地形
  6
CONTINUOUS
 62
    7
 10
5.8726268022625732
 20
17.624999246189454
 11
6.1092688422625656
 21
18.142958306189449
  0
LINE
  8
_0-1_地形
  6
CONTINUOUS
 62
    7
 10
18.8266906137859
 20
22.645698386385725
 11
18.658024433785876
 21
23.21559278638572
  0
LINE
  8
_0-1_地形
  6
CONTINUOUS
 62
    7
 10
18.658024433785876
 20
23.21559278638572
 11
18.428814113785883
 21
23.794526426385708
  0
LINE
  8
_0-1_地形
  6
CONTINUOUS
 62
    7
 10
18.428814113785883
 20
23.794526426385708
 11
18.1864621137859
 21
24.280663526385716
  0
LINE
  8
_0-1_地形
  6
CONTINUOUS
 62
    7
 10
18.1864621137859
 20
24.280663526385716
 11
17.924241533785903
 21
24.71840162638572
  0
LINE
  8
_0-1_地形
  6
CONTINUOUS
 62
    7
 10
17.924241533785903
 20
24.71840162638572
 11
17.560601333785861
 21
25.224727586385718
  0
LINE
  8
_0-1_地形
  6
CONTINUOUS
 62
    7
 10
17.560601333785861
 20
25.224727586385718
 11
17.177580113785893
 21
24.853251746385716
  0
LINE
  8
_0-1_地形
  6
CONTINUOUS
 62
    7
 10
17.177580113785893
 20
24.853251746385716
 11
16.803502253785872
 21
24.42490172638572
  0
LINE
  8
_0-1_地形
  6
CONTINUOUS
 62
    7
 10
16.803502253785872
 20
24.42490172638572
 11
16.42893581378587
 21
24.043107566385707
  0
LINE
  8
_0-1_地形
  6
CONTINUOUS
 62
    7
 10
16.42893581378587
 20
24.043107566385707
 11
15.933638093785891
 21
23.643847946385726
  0
LINE
  8
_0-1_地形
  6
CONTINUOUS
 62
    7
 10
15.933638093785891
 20
23.643847946385726
 11
15.460918073785857
 21
23.347703186385736
  0
LINE
  8
_0-1_地形
  6
CONTINUOUS
 62
    7
 10
15.460918073785857
 20
23.347703186385736
 11
14.874030473785865
 21
23.071672826385715
  0
LINE
  8
_0-1_地形
  6
CONTINUOUS
 62
    7
 10
14.874030473785865
 20
23.071672826385715
 11
14.361192833785896
 21
22.880978726385699
  0
LINE
  8
_0-1_地形
  6
CONTINUOUS
 62
    7
 10
14.361192833785896
 20
22.880978726385699
 11
13.837873673785868
 21
22.567900946385713
  0
LINE
  8
_0-1_地形
  6
CONTINUOUS
 62
    7
 10
13.837873673785868
 20
22.567900946385713
 11
13.409554253785888
 21
22.154410286385705
  0
LINE
  8
_0-1_地形
  6
CONTINUOUS
 62
    7
 10
13.409554253785888
 20
22.154410286385705
 11
13.079058953785875
 21
21.644099186385709
  0
LINE
  8
_0-1_地形
  6
CONTINUOUS
 62
    7
 10
13.079058953785875
 20
21.644099186385709
 11
12.957327053785889
 21
21.356309246385727
  0
LINE
  8
_0-1_地形
  6
CONTINUOUS
 62
    7
 10
12.957327053785889
 20
21.356309246385727
 11
13.039164713785908
 21
21.039037226385709
  0
LINE
  8
_0-1_地形
  6
CONTINUOUS
 62
    7
 10
13.039164713785908
 20
21.039037226385709
 11
14.21736263378591
 21
19.678148126385715
  0
LINE
  8
_0-1_地形
  6
CONTINUOUS
 62
    7
 10
14.21736263378591
 20
19.678148126385715
 11
14.57800913378594
 21
20.140910906385706
  0
LINE
  8
_0-1_地形
  6
CONTINUOUS
 62
    7
 10
14.57800913378594
 20
20.140910906385706
 11
15.089918573785894
 21
20.663003006385701
  0
LINE
  8
_0-1_地形
  6
CONTINUOUS
 62
    7
 10
15.089918573785894
 20
20.663003006385701
 11
15.618792653785892
 21
21.085399286385716
  0
LINE
  8
_0-1_地形
  6
CONTINUOUS
 62
    7
 10
15.618792653785892
 20
21.085399286385716
 11
16.095008213785867
 21
21.388617746385712
  0
LINE
  8
_0-1_地形
  6
CONTINUOUS
 62
    7
 10
16.095008213785867
 20
21.388617746385712
 11
16.62692189378587
 21
21.656832866385706
  0
LINE
  8
_0-1_地形
  6
CONTINUOUS
 62
    7
 10
16.62692189378587
 20
21.656832866385706
 11
18.8266906137859
 21
22.645698386385725
  0
LINE
  8
_0-1_地形
  6
CONTINUOUS
 62
    7
 10
14.096939842262543
 20
19.250789486189468
 11
13.111653502262527
 21
20.341405106189477
  0
LINE
  8
_0-1_地形
  6
CONTINUOUS
 62
    7
 10
13.111653502262527
 20
20.341405106189477
 11
12.785071942262542
 21
20.05439444618947
  0
LINE
  8
_0-1_地形
  6
CONTINUOUS
 62
    7
 10
12.785071942262542
 20
20.05439444618947
 11
12.479786962262569
 21
19.611022886189438
  0
LINE
  8
_0-1_地形
  6
CONTINUOUS
 62
    7
 10
12.479786962262569
 20
19.611022886189438
 11
12.35739614226253
 21
19.468563566189466
  0
LINE
  8
_0-1_地形
  6
CONTINUOUS
 62
    7
 10
12.35739614226253
 20
19.468563566189466
 11
12.188478022262586
 21
19.35399818618945
  0
LINE
  8
_0-1_地形
  6
CONTINUOUS
 62
    7
 10
12.188478022262586
 20
19.35399818618945
 11
12.016840582262546
 21
19.294241486189456
  0
LINE
  8
_0-1_地形
  6
CONTINUOUS
 62
    7
 10
12.016840582262546
 20
19.294241486189456
 11
11.824302322262554
 21
19.278509006189459
  0
LINE
  8
_0-1_地形
  6
CONTINUOUS
 62
    7
 10
11.824302322262554
 20
19.278509006189459
 11
11.661041122262549
 21
19.305001466189459
  0
LINE
  8
_0-1_地形
  6
CONTINUOUS
 62
    7
 10
11.661041122262549
 20
19.305001466189459
 11
10.997440342262564
 21
19.438513346189474
  0
LINE
  8
_0-1_地形
  6
CONTINUOUS
 62
    7
 10
10.997440342262564
 20
19.438513346189474
 11
10.387835302262545
 21
19.497176606189477
  0
LINE
  8
_0-1_地形
  6
CONTINUOUS
 62
    7
 10
10.387835302262545
 20
19.497176606189477
 11
9.6635761422625706
 21
19.489609226189437
  0
LINE
  8
_0-1_地形
  6
CONTINUOUS
 62
    7
 10
9.6635761422625706
 20
19.489609226189437
 11
9.3147810222625171
 21
19.450224986189475
  0
LINE
  8
_0-1_地形
  6
CONTINUOUS
 62
    7
 10
9.3147810222625171
 20
19.450224986189475
 11
8.9416415622625323
 21
19.339443806189472
  0
LINE
  8
_0-1_地形
  6
CONTINUOUS
 62
    7
 10
8.9416415622625323
 20
19.339443806189472
 11
8.6181495822625607
 21
19.17614894618945
  0
LINE
  8
_0-1_地形
  6
CONTINUOUS
 62
    7
 10
8.6181495822625607
 20
19.17614894618945
 11
8.2780836222625744
 21
18.919983086189468
  0
LINE
  8
_0-1_地形
  6
CONTINUOUS
 62
    7
 10
8.2780836222625744
 20
18.919983086189468
 11
8.0007415422625741
 21
18.658292906189452
  0
LINE
  8
_0-1_地形
  6
CONTINUOUS
 62
    7
 10
8.0007415422625741
 20
18.658292906189452
 11
7.7574256422625272
 21
18.36097412618944
  0
LINE
  8
_0-1_地形
  6
CONTINUOUS
 62
    7
 10
7.7574256422625272
 20
18.36097412618944
 11
7.5434061822625722
 21
18.014110886189449
  0
LINE
  8
_0-1_地形
  6
CONTINUOUS
 62
    7
 10
7.5434061822625722
 20
18.014110886189449
 11
7.3716300222625737
 21
17.621421086189464
  0
LINE
  8
_0-1_地形
  6
CONTINUOUS
 62
    7
 10
9.7591460622625732
 20
16.040019206189463
 11
10.62401324226253
 21
16.608232646189457
  0
LINE
  8
_0-1_地形
  6
CONTINUOUS
 62
    7
 10
10.62401324226253
 20
16.608232646189457
 11
11.450612062262564
 21
17.072921186189468
  0
LINE
  8
_0-1_地形
  6
CONTINUOUS
 62
    7
 10
11.450612062262564
 20
17.072921186189468
 11
12.284782342262531
 21
17.580438506189445
  0
LINE
  8
_0-1_地形
  6
CONTINUOUS
 62
    7
 10
12.284782342262531
 20
17.580438506189445
 11
13.133397862262521
 21
18.151035686189466
  0
LINE
  8
_0-1_地形
  6
CONTINUOUS
 62
    7
 10
13.133397862262521
 20
18.151035686189466
 11
13.493978062262556
 21
18.404265986189465
  0
LINE
  8
_0-1_地形
  6
CONTINUOUS
 62
    7
 10
13.493978062262556
 20
18.404265986189465
 11
13.736422882262577
 21
18.649685126189446
  0
LINE
  8
_0-1_地形
  6
CONTINUOUS
 62
    7
 10
13.736422882262577
 20
18.649685126189446
 11
13.93229144226251
 21
18.921627326189459
  0
LINE
  8
_0-1_地形
  6
CONTINUOUS
 62
    7
 10
13.93229144226251
 20
18.921627326189459
 11
14.096939842262543
 21
19.250789486189468
  0
LINE
  8
_0-1_地形
  6
DASHED2
 62
    7
 10
8.7342143622625485
 20
16.937779346189451
 11
7.3716300222625737
 21
17.621421086189464
  0
LINE
  8
_0-1_地形
  6
DASHED2
 62
    7
 10
9.9526625022625499
 20
16.167159146189469
 11
9.5672453022625064
 21
16.482305486189468
  0
LINE
  8
_0-0_9001
  6
CONTINUOUS
 62
    7
 10
16.709684122262559
 20
4.3225805061894622
 11
21.58714681490871
 21
4.3225805061894622
  0
LINE
  8
_0-0_9001
  6
CONTINUOUS
 62
    7
 10
21.58714681490871
 20
4.3225805061894622
 11
21.937441162262587
 21
5.0601710661894632
  0
LINE
  8
_0-0_9001
  6
CONTINUOUS
 62
    7
 10
2.994685582262548
 20
14.021080166189458
 11
2.994685582262548
 21
24.750557066189451
  0
LINE
  8
_0-0_9001
  6
CONTINUOUS
 62
    7
 10
2.994685582262548
 20
24.748811792860042
 11
2.994685582262548
 21
31.103622986189457
  0
LINE
  8
_0-0_9001
  6
CONTINUOUS
 62
    7
 10
9.939640162262549
 20
31.103622986189457
 11
2.994685582262548
 21
31.103622986189457
  0
LINE
  8
_0-0_9001
  6
CONTINUOUS
 62
    7
 10
9.939640162262549
 20
31.103622986189457
 11
46.419038649925461
 21
31.103622986189457
  0
LINE
  8
_0-1_地形
  6
CONTINUOUS
 62
    7
 10
46.419038649925461
 20
25.71531231062535
 11
46.242045022262531
 21
25.498667906189475
  0
LINE
  8
_0-1_地形
  6
CONTINUOUS
 62
    7
 10
46.419038649925461
 20
25.109849543246881
 11
46.272205402262536
 21
24.905084006189448
  0
LINE
  8
_0-1_地形
  6
CONTINUOUS
 62
    7
 10
46.419038649925461
 20
24.34031672250488
 11
46.179055942262551
 21
23.956629866189452
  0
LINE
  8
_0-1_地形
  6
CONTINUOUS
 62
    7
 10
45.862006282262541
 20
19.391254706189464
 11
46.419038649925461
 21
19.156779832015069
  0
LINE
  8
_0-1_地形
  6
CONTINUOUS
 62
    7
 10
46.129902142262551
 20
18.534528146189452
 11
46.419038649925461
 21
18.445536854018407
  0
LINE
  8
_0-1_地形
  6
CONTINUOUS
 62
    7
 10
46.333404382262565
 20
16.477212626189448
 11
46.419038649925461
 21
16.428468783303977
  0
LINE
  8
_0-1_地形
  6
CONTINUOUS
 62
    7
 10
46.180069822262524
 20
16.187987546189468
 11
46.419038649925461
 21
16.046082521678574
  0
LINE
  8
_0-1_地形
  6
CONTINUOUS
 62
    7
 10
33.775193962262563
 20
13.639910246189453
 11
27.313449082262537
 21
4.8754021461894528
  0
LINE
  8
_0-1_地形
  6
CONTINUOUS
 62
    7
 10
33.573311482262568
 20
13.786859606189461
 11
27.112090882262539
 21
5.0230624461894511
  0
LINE
  8
_0-0_9001
  6
CONTINUOUS
 62
    7
 10
2.994685582262548
 20
14.021080166189458
 11
2.994685582262548
 21
4.3225805061894622
  0
LINE
  8
_0-0_9001
  6
CONTINUOUS
 62
    7
 10
16.709684122262559
 20
4.3225805061894622
 11
2.994685582262548
 21
4.3225805061894622
  0
LINE
  8
_0-0_9001
  6
CONTINUOUS
 62
    7
 10
46.419038649925461
 20
31.103622986189457
 11
46.419038649925461
 21
4.3225805061894622
  0
LINE
  8
_0-0_9001
  6
CONTINUOUS
 62
    7
 10
21.58714681490871
 20
4.3225805061894622
 11
46.419038649925461
 21
4.3225805061894622
  0
LINE
  8
_0-1_地形
  6
CONTINUOUS
 62
    7
 10
46.419038649925461
 20
21.714432440802256
 11
46.231249342262529
 21
21.447598166189458
  0
LINE
  8
_0-1_地形
  6
CONTINUOUS
 62
    7
 10
46.419038649925461
 20
22.807888157473236
 11
46.040133982262546
 21
22.433318006189474
  0
LINE
  8
_0-1_地形
  6
CONTINUOUS
 62
    7
 10
32.984066662262592
 20
9.9068673261894649
 11
28.638346840336432
 21
4.3225805061894622
  0
LINE
  8
_0-1_地形
  6
CONTINUOUS
 62
    7
 10
29.477813602262529
 20
6.7132656861894535
 11
27.738079484478078
 21
4.3225805061894578
  0
LINE
  8
_0-1_地形
  6
CONTINUOUS
 62
    7
 10
8.0832381222625713
 20
5.7615995661894406
 11
8.1405222197291387
 21
4.3225805061894622
  0
LINE
  8
_0-1_地形
  6
CONTINUOUS
 62
    7
 10
7.9158041022625412
 20
5.7826717461894734
 11
7.9739258002850875
 21
4.3225805061894622
  0
LINE
  8
_0-1_地形
  6
CONTINUOUS
 62
    7
 10
3.1524867222625517
 20
7.8973806261894541
 11
2.994685582262548
 21
7.8972544724068996
  0
LINE
  8
_0-1_地形
  6
CONTINUOUS
 62
    7
 10
2.994685582262548
 20
8.8550785342099729
 11
3.6404873622625473
 21
8.8833850461894546
  0
LINE
  8
_0-1_地形
  6
CONTINUOUS
 62
    7
 10
2.994685582262548
 20
8.6051428971378119
 11
3.6410738622625445
 21
8.6334748461894666
  0
LINE
  8
_0-1_地形
  6
CONTINUOUS
 62
    7
 10
3.8551902222625358
 20
7.6233372261894718
 11
2.994685582262548
 21
7.631655041303846
  0
LINE
  8
_0-1_地形
  6
CONTINUOUS
 62
    7
 10
3.1897034622625711
 20
12.713356526189452
 11
2.994685582262548
 21
12.589896647117911
  0
LINE
  8
_0-1_地形
  6
CONTINUOUS
 62
    7
 10
2.994685582262548
 20
20.818047863484523
 11
7.0427055222625654
 21
17.910831806189442
  0
LINE
  8
_0-1_地形
  6
CONTINUOUS
 62
    7
 10
2.994685582262548
 20
20.331237857403792
 11
7.0196637222625782
 21
17.503322426189449
  0
LINE
  8
_0-0_9001
  6
CONTINUOUS
 62
    7
 10
2.994685582262548
 20
24.748811792860042
 11
3.0896173339254269
 21
24.751110515109065
  0
LINE
  8
_0-1_地形
  6
CONTINUOUS
 62
    7
 10
3.195439942262567
 20
24.940597346189456
 11
2.994685582262548
 21
24.854771740212975
  0
LINE
  8
_0-1_地形
  6
CONTINUOUS
 62
    7
 10
2.994685582262548
 20
25.238260436011164
 11
3.553709842262549
 21
25.653138746189448
  0
LINE
  8
_0-1_地形
  6
CONTINUOUS
 62
    7
 10
7.1518343022625572
 20
30.534030506189445
 11
7.2278664870113403
 21
31.103622986189457
  0
LINE
  8
_0-1_地形
  6
CONTINUOUS
 62
    7
 10
9.3515794164740473
 20
31.103622986189457
 11
9.2552579022625423
 21
30.880411286189464
  0
LINE
  8
_0-1_地形
  6
CONTINUOUS
 62
    7
 10
9.5667291822625771
 20
30.888837506189468
 11
9.659424602648679
 21
31.103622986189457
  0
TEXT
  8
_0-0_9001
 62
    7
 10
18.909297019335344
 20
3.2991204047513394
 40
0.6666666666666666
 41
1
 50
0
  1
200
  0
TEXT
  8
_0-0_9001
 62
    7
 10
10.836569746608063
 20
3.4082113138422487
 40
0.6666666666666666
 41
1
 50
0
  1
100
  0
TEXT
  8
_0-0_9001
 62
    7
 10
6.891115201153525
 20
3.4082113138422487
 40
0.6666666666666666
 41
1
 50
0
  1
50
  0
TEXT
  8
_0-0_9001
 62
    7
 10
4.4183879284262462
 20
3.4263931320240673
 40
0.6666666666666666
 41
1
 50
0
  1
20
  0
TEXT
  8
_0-0_9001
 62
    7
 10
3.0729333829716929
 20
3.3900294956604307
 40
0.6666666666666666
 41
1
 50
0
  1
0
  0
LINE
  8
_0-1_地形
  6
CONTINUOUS
 62
    7
 10
2.994685582262548
 20
28.480599178570948
 11
3.109443742262556
 21
28.348936526189455
  0
LINE
  8
_0-1_地形
  6
CONTINUOUS
 62
    7
 10
25.691765362262533
 20
30.802368026189463
 11
25.985126704907522
 21
31.103622986189457
  0
LINE
  8
_0-1_地形
  6
CONTINUOUS
 62
    7
 10
26.570124962402907
 20
31.103622986189457
 11
26.31935708226257
 21
30.88323668618947
  0
LINE
  8
_0-1_地形
  6
CONTINUOUS
 62
    7
 10
27.480146662262541
 20
30.619007726189459
 11
27.042086378205092
 21
31.103622986189457
  0
LINE
  8
_0-1_地形
  6
CONTINUOUS
 62
    7
 10
27.607199111620918
 20
31.103622986189453
 11
28.207449502262534
 21
30.489428966189458
  0
LINE
  8
_0-1_地形
  6
CONTINUOUS
 62
    7
 10
34.727181794205343
 20
31.103622986189453
 11
35.939711482262567
 21
29.488693706189473
  0
LINE
  8
_0-1_地形
  6
CONTINUOUS
 62
  136
 10
19.689670420593131
 20
3.0357617752243038
 11
19.689670420593131
 21
2.0369777752243032
  0
LINE
  8
_0-1_地形
  6
CONTINUOUS
 62
  136
 10
3.0432714405930974
 20
2.0369777752243032
 11
3.0432714405930974
 21
3.0357617752243038
  0
LINE
  8
_0-1_地形
  6
CONTINUOUS
 62
  136
 10
11.366470420593163
 20
3.0357617752243038
 11
11.366470420593163
 21
2.0369777752243032
  0
LINE
  8
_0-1_地形
  6
CONTINUOUS
 62
  136
 10
7.2048714405931564
 20
3.0357617752243038
 11
7.2048714405931564
 21
2.0369777752243032
  0
LINE
  8
_0-1_地形
  6
CONTINUOUS
 62
  136
 10
6.3725514405930994
 20
3.0357617752243038
 11
6.3725514405930994
 21
2.0369777752243032
  0
LINE
  8
_0-1_地形
  6
CONTINUOUS
 62
  136
 10
5.5402314405931179
 20
3.0357617752243038
 11
5.5402314405931179
 21
2.0369777752243032
  0
LINE
  8
_0-1_地形
  6
CONTINUOUS
 62
  136
 10
4.7079114405931364
 20
3.0357617752243038
 11
4.7079114405931364
 21
2.0369777752243032
  0
LINE
  8
_0-1_地形
  6
CONTINUOUS
 62
  136
 10
3.8755914405931167
 20
3.0357617752243038
 11
3.8755914405931167
 21
2.0369777752243032
  0
LINE
  8
_0-1_地形
  6
CONTINUOUS
 62
  136
 10
3.0432714405930974
 20
3.0357617752243038
 11
19.689670420593131
 21
3.0357617752243038
  0
LINE
  8
_0-1_地形
  6
CONTINUOUS
 62
  136
 10
19.689670420593131
 20
2.5363697752243226
 11
3.0432714405930974
 21
2.5363697752243226
  0
LINE
  8
_0-1_地形
  6
CONTINUOUS
 62
  136
 10
19.689670420593131
 20
2.0369777752243032
 11
3.0432714405930974
 21
2.0369777752243032
  0
LINE
  8
_0-1_地形
  6
CONTINUOUS
 62
  136
 10
44.462165251274385
 20
6.6391274841731178
 11
45.441494244554384
 21
7.6184564774531198
  0
LINE
  8
_0-1_地形
  6
CONTINUOUS
 62
  136
 10
45.441494244554384
 20
7.6184564774531198
 11
45.159338417354391
 21
7.2154960934531136
  0
LINE
  8
_0-1_地形
  6
CONTINUOUS
 62
  136
 10
45.441494244554384
 20
7.6184564774531198
 11
45.038533860554402
 21
7.3363006502531238
  0
LINE
  8
_0-1_地形
  6
CONTINUOUS
 62
  136
 10
45.441494244554384
 20
6.6391274841731178
 11
45.038533860554402
 21
6.9212833113731111
  0
LINE
  8
_0-1_地形
  6
CONTINUOUS
 62
  136
 10
45.441494244554384
 20
6.6391274841731178
 11
45.159338417354391
 21
7.042087868173124
  0
LINE
  8
_0-1_地形
  6
CONTINUOUS
 62
  136
 10
44.951829747914395
 20
5.9302511808131246
 11
44.855407009994394
 21
7.032368981773125
  0
LINE
  8
_0-1_地形
  6
CONTINUOUS
 62
  136
 10
44.951829747914395
 20
5.9302511808131246
 11
45.048252746954361
 21
7.032368981773125
  0
LINE
  8
_0-1_地形
  6
CONTINUOUS
 62
  136
 10
44.462165251274385
 20
6.6391274841731178
 11
44.744321339594379
 21
7.042087868173124
  0
LINE
  8
_0-1_地形
  6
CONTINUOUS
 62
  136
 10
44.462165251274385
 20
6.6391274841731178
 11
44.865125635274389
 21
6.9212833113731111
  0
LINE
  8
_0-1_地形
  6
CONTINUOUS
 62
  136
 10
44.462165251274385
 20
7.6184564774531198
 11
44.865125635274389
 21
7.3363006502531238
  0
LINE
  8
_0-1_地形
  6
CONTINUOUS
 62
  136
 10
44.462165251274385
 20
7.6184564774531198
 11
44.744321339594379
 21
7.2154960934531136
  0
LINE
  8
_0-1_地形
  6
CONTINUOUS
 62
  136
 10
45.007912318154389
 20
9.6594709286531284
 11
44.951829747914395
 21
9.4501678425731228
  0
LINE
  8
_0-1_地形
  6
CONTINUOUS
 62
  136
 10
44.951829747914395
 20
10.300498072333124
 11
45.007912318154389
 21
9.6594709286531284
  0
LINE
  8
_0-1_地形
  6
CONTINUOUS
 62
  136
 10
44.951829747914395
 20
10.300498072333124
 11
44.89574717767438
 21
9.6594709286531284
  0
LINE
  8
_0-1_地形
  6
CONTINUOUS
 62
  136
 10
44.462165251274385
 20
7.6184564774531198
 11
45.441494244554384
 21
6.6391274841731178
  0
LINE
  8
_0-1_地形
  6
CONTINUOUS
 62
  136
 10
44.951829747914395
 20
8.3273327808131192
 11
45.048252746954361
 21
7.2252147187331106
  0
LINE
  8
_0-1_地形
  6
CONTINUOUS
 62
  136
 10
44.951829747914395
 20
8.3273327808131192
 11
44.855407009994394
 21
7.2252147187331106
  0
LINE
  8
_0-1_地形
  6
CONTINUOUS
 62
  136
 10
44.89574717767438
 20
9.6594709286531284
 11
44.951829747914395
 21
9.4501678425731228
  0
LINE
  8
_0-1_地形
  6
CONTINUOUS
 62
  136
 10
44.951829747914395
 20
4.7404782681731277
 11
44.951829747914395
 21
10.300498072333124
  0
LINE
  8
_0-1_地形
  6
CONTINUOUS
 62
  136
 10
43.753288947914385
 20
7.1287919808131139
 11
44.855407009994394
 21
7.2252147187331106
  0
LINE
  8
_0-1_地形
  6
CONTINUOUS
 62
  136
 10
43.753288947914385
 20
7.1287919808131139
 11
44.855407009994394
 21
7.032368981773125
  0
LINE
  8
_0-1_地形
  6
CONTINUOUS
 62
  136
 10
43.753288947914385
 20
7.1287919808131139
 11
46.150370547914406
 21
7.1287919808131139
  0
LINE
  8
_0-1_地形
  6
CONTINUOUS
 62
  136
 10
46.150370547914406
 20
7.1287919808131139
 11
45.048252746954361
 21
7.2252147187331106
  0
LINE
  8
_0-1_地形
  6
CONTINUOUS
 62
  136
 10
46.150370547914406
 20
7.1287919808131139
 11
45.048252746954361
 21
7.032368981773125
  0
LINE
  8
_0-1_地形
  6
CONTINUOUS
 62
    7
 10
8.7262461222625234
 20
16.370702186189455
 11
9.0119583222625579
 21
16.137081386189458
  0
LINE
  8
_0-1_地形
  6
CONTINUOUS
 62
    7
 10
9.0119583222625579
 20
16.137081386189458
 11
9.502431442262548
 21
16.736917886189453
  0
LINE
  8
_0-1_地形
  6
CONTINUOUS
 62
    7
 10
9.502431442262548
 20
16.736917886189453
 11
9.2167192422625313
 21
16.97053868618945
  0
LINE
  8
_0-1_地形
  6
CONTINUOUS
 62
    7
 10
9.2167192422625313
 20
16.97053868618945
 11
8.7262461222625234
 21
16.370702186189455
  0
LINE
  8
_0-0_9001
  6
CONTINUOUS
 62
    7
 10
9.2167192422625313
 20
16.97053868618945
 11
8.7262461222625234
 21
16.370702186189455
  0
LINE
  8
_0-0_9001
  6
CONTINUOUS
 62
    7
 10
8.7262461222625234
 20
16.370702186189455
 11
9.0119583222625579
 21
16.137081386189458
  0
LINE
  8
_0-0_9001
  6
CONTINUOUS
 62
    7
 10
9.0119583222625579
 20
16.137081386189458
 11
9.502431442262548
 21
16.736917886189453
  0
LINE
  8
_0-0_9001
  6
CONTINUOUS
 62
    7
 10
9.502431442262548
 20
16.736917886189453
 11
9.2167192422625313
 21
16.97053868618945
  0
LINE
  8
_0-1_地形
  6
CONTINUOUS
 62
    7
 10
27.71389394226253
 20
22.845455126189471
 11
27.375199882262525
 21
22.752367886189468
  0
LINE
  8
_0-1_地形
  6
CONTINUOUS
 62
    7
 10
26.279241502262551
 20
23.182538606189446
 11
26.767614442262527
 21
22.63209458618946
  0
LINE
  8
_0-1_地形
  6
CONTINUOUS
 62
    7
 10
26.767614442262527
 20
22.63209458618946
 11
27.338024962262541
 21
23.138182886189448
  0
LINE
  8
_0-1_地形
  6
CONTINUOUS
 62
    7
 10
27.338024962262541
 20
23.138182886189448
 11
26.849651002262533
 21
23.688626906189462
  0
LINE
  8
_0-1_地形
  6
CONTINUOUS
 62
    7
 10
26.849651002262533
 20
23.688626906189462
 11
26.279241502262551
 21
23.182538606189446
  0
LINE
  8
_0-0_9001
  6
CONTINUOUS
 62
    7
 10
26.849651002262533
 20
23.688626906189462
 11
26.279241502262551
 21
23.182538606189446
  0
LINE
  8
_0-0_9001
  6
CONTINUOUS
 62
    7
 10
26.279241502262551
 20
23.182538606189446
 11
26.767614442262527
 21
22.63209458618946
  0
LINE
  8
_0-0_9001
  6
CONTINUOUS
 62
    7
 10
26.767614442262527
 20
22.63209458618946
 11
27.338024962262541
 21
23.138182886189448
  0
LINE
  8
_0-0_9001
  6
CONTINUOUS
 62
    7
 10
27.338024962262541
 20
23.138182886189448
 11
26.849651002262533
 21
23.688626906189462
  0
LINE
  8
_0-0_9001
  6
CONTINUOUS
 62
    7
 10
-587775.0781303097
 20
-808989.22501769487
 11
587795.42645463662
 21
-808989.22501769499
  0
LINE
  8
_0-0_9001
  6
CONTINUOUS
 62
    7
 10
587795.42645463662
 20
-808989.22501769499
 11
951066.69045731705
 21
309044.76373219979
  0
LINE
  8
_0-0_9001
  6
CONTINUOUS
 62
    7
 10
951066.69045731705
 20
309044.76373219979
 11
10.174162163598206
 21
1000027.7693572524
  0
LINE
  8
_0-0_9001
  6
CONTINUOUS
 62
    7
 10
10.174162163598206
 20
1000027.7693572524
 11
-951046.3421329899
 21
309044.76373219991
  0
LINE
  8
_0-0_9001
  6
CONTINUOUS
 62
    7
 10
-951046.3421329899
 20
309044.76373219991
 11
-587775.0781303097
 21
-808989.22501769487
  0
LINE
  8
_0-0_9001
  6
CONTINUOUS
 62
    7
 10
-587774.60767576424
 20
-808991.39319951297
 11
587795.89690918208
 21
-808991.3931995132
  0
LINE
  8
_0-0_9001
  6
CONTINUOUS
 62
    7
 10
587795.89690918208
 20
-808991.3931995132
 11
951067.16091186251
 21
309042.59555038164
  0
LINE
  8
_0-0_9001
  6
CONTINUOUS
 62
    7
 10
951067.16091186251
 20
309042.59555038164
 11
10.644616709052741
 21
1000025.6011754342
  0
LINE
  8
_0-0_9001
  6
CONTINUOUS
 62
    7
 10
10.644616709052741
 20
1000025.6011754342
 11
-951045.87167844432
 21
309042.59555038175
  0
LINE
  8
_0-0_9001
  6
CONTINUOUS
 62
    7
 10
-951045.87167844432
 20
309042.59555038175
 11
-587774.60767576424
 21
-808991.39319951297
  0
LINE
  8
_0-0_9001
  6
CONTINUOUS
 62
    7
 10
-587774.60767576424
 20
-808991.39319951297
 11
587795.89690918208
 21
-808991.3931995132
  0
LINE
  8
_0-0_9001
  6
CONTINUOUS
 62
    7
 10
587795.89690918208
 20
-808991.3931995132
 11
951067.16091186251
 21
309042.59555038164
  0
LINE
  8
_0-0_9001
  6
CONTINUOUS
 62
    7
 10
951067.16091186251
 20
309042.59555038164
 11
10.644616709052741
 21
1000025.6011754342
  0
LINE
  8
_0-0_9001
  6
CONTINUOUS
 62
    7
 10
10.644616709052741
 20
1000025.6011754342
 11
-951045.87167844432
 21
309042.59555038175
  0
LINE
  8
_0-0_9001
  6
CONTINUOUS
 62
    7
 10
-951045.87167844432
 20
309042.59555038175
 11
-587774.60767576424
 21
-808991.39319951297
  0
TEXT
  8
_0-0_9001
 62
    7
 10
3.0268710936074585
 20
31.267076871099384
 40
1.1666666666666665
 41
1
 50
0
  1
別添2-2 計画地図面
  0
LINE
  8
_0-1_地形
  6
DASHED2
 62
    7
 10
9.0573617620538762
 20
16.775648427622006
 11
7.371630022262555
 21
17.621421086189464
  0
LINE
  8
_0-1_地形
  6
DASHED2
 62
    7
 10
9.9526625022625304
 20
16.167159146189469
 11
9.403631766126674
 21
16.616088324857984
  0
LINE
  8
_0-1_地形
  6
DASHED2
 62
    7
 10
8.8982891347249797
 20
16.581106537084217
 11
7.3211696022625574
 21
17.348699606189449
  0
LINE
  8
_0-1_地形
  6
DASHED2
 62
    7
 10
9.2346911648128867
 20
16.409478146098429
 11
9.7214876622625361
 21
16.01143574618947
  0
TEXT
  8
_0-0_9001
 62
    7
 10
37.245170454545452
 20
1.9034090909090935
 40
1.1666666666666665
 41
1
 50
0
  1
A4 縮尺 1:2000
  0
ENDSEC
  0
EOF
